Oops, an error
Loading. Please wait.

Fainted Eyes Bass Tab

version 1
version 1

Whole song

Interactive

534 views 1 this week
no commentswrite comment
1 2 3 4 5
3 more votes to show rating
add to favorites
launch autoscroll
font size
0
reset
guitar tuner
Autoscroll
slow
fast
+/-
esc
set tempo
stop
Help us to improve Ultimate-Guitar.com Take our survey!
×
Bassist- Martin Eric Ain

This older Celtic Frost--and any fans of the band probably know that--and so it is
different than Monotheist, horribly slow and boring compared to the old stuff if you 
to
me. Tons and tons and tons and tons and tons of tremolo picking--which is not so common 
bass. In parts I would not have needed to use tremolo picking but it makes things
Instead picking really fast I find it more efficient--less tiring--to tremolo pick or 
pick or whatever you like to call it.

It's as accurate as I can possibly make it.


D-t0-t0-h5-t0-t0-h5-t0-t0-h5-6-7-6|
A---------------------------------|      <- Repeat 6x
D---------------------------------|
G---------------------------------|

D-0-t3-t3-0-t3-t3-0-t3-t3-5-6-5|
A------------------------------|      <- Repeat 4x
D------------------------------|
G------------------------------|

D-t2-t2-t2-t2-t2-t2-3-4-5-------|
A-------------------------------|  <- Repeat 3x
D-------------------------------|
G-------------------------------|

D--------|
A--------|      <- Repeat 1x
D--------|
G-5-6-7-9|

D-0-t3-t3-0-t3-t3-0-t3-t3-5-6-5|
A------------------------------|      <- Repeat 5x
D------------------------------|
G------------------------------|

D-t3-t3-t3-t3-t3-t3-4-5|
A----------------------|      <- Repeat 3x
D----------------------|
G----------------------|

D--------|
A--------|      <- Repeat 1x
D--------|
G-5-6-7-9|

D-t7-t7-t7-t7-t7-t7-8-9|
A----------------------|      <-Repeat 3x
D----------------------|
G----------------------|

D-0-t7-7-0-t6-6-0-t3-3-0-t4-4|
A----------------------------|    <- Repeat 4x
D----------------------------|
G----------------------------|

D-t0-t0-h5-t0-t0-h5-t0-t0-h5-6-7-6|
A---------------------------------|      <- Repeat 5x
D---------------------------------|
G---------------------------------|

D-t2-t2-t2-t2-t2-t2-3-4-5-------|
A-------------------------------|     <- Repeat 3x
D-------------------------------|
G-------------------------------|

D--------|
A--------|      <- Repeat 1x
D--------|
G-5-6-7-9|

D-0-t3-t3-0-t3-t3-0-t3-t3-5-6-5|
A------------------------------|      <- Repeat 4x
D------------------------------|
G------------------------------|

D-t3-t3-t3-t3-t3-t3-4-5|
A----------------------|      <-Repeat 3x
D----------------------|
G----------------------|

D--------|
A--------|      Repeat 1x
D--------|
G-5-6-7-9|

D-t7-t7-t7-t7-t7-t7-8-9|
A----------------------|      <-Repeat 3x
D----------------------|
G----------------------|

D-0-t7-7-0-t6-6-0-t3-3-0-t4-4|
A----------------------------|    <- Repeat 4x
D----------------------------|
G----------------------------|

D-0-3-0-4-0-5\6-6-5-|
A-------------------| <- Repeat 4x
D-------------------|
G-------------------|

D-3-3-3-3-7-7-7-8-3-2-|
A---------------------|      <- Repeat 3x
D---------------------|
G---------------------|

D3-3-3-3-7-h8-|
A-------------|      <- Repeat 5x
D-------------|
G-------------|

D-4-0-0-0-0-2-0-4-|
A-----------------|       <- Repeat 4x
D-----------------|
G-----------------|

Listen to the song and the tab is sure to work. Ain may have used a five string set to
C turning however cause my G string was never exactly right even when I popped the
It's a cool song and fun to play, so there's Celtic Frost's Tainted Eyes on bass!

++ ARCLIGHT ++

Legend:

t-tremolo or double pick
\-slide down
h-hammer-on
Suggest correction
Give kudos to tab author, rate the tab!
1 2 3 4 5
comments
print report bad tab
guest
You may want to rate the tab now too:
select rating
Wanna post a correction for this tab? Suggest correction