Oops, an error
Loading. Please wait.

Ground Tab

version 1
version 1

Whole song

Interactive

2,028 views 3 this week
6 commentsread comments
1 2 3 4 5
1 last vote to show rating
add to favorites
launch autoscroll
font size
0
reset
how to read this tab
guitar tuner
Autoscroll
slow
fast
+/-
esc
set tempo
stop
Help us to improve Ultimate-Guitar.com Take our survey!
×
Author
Difficulty
Tuning
novice
B E A D F# B
Artist: Celtic Frost
Song: Ground

Tuning:     B 

notes: the bendings are achieved by pressing the string "into" the fretboard, that's the super secret Tom Warrior trick.
for the tone crank a Marshall JCM800 + Tubescreamer and beat the fuck out of your strings.


Riff 1  (Intro)
D|----------------------------------|
A|----------------------------------|
F|----------------------------------|
C|-3--3----2--2----7--7----6--6-----|
G|-3--3----2--2----7--7----6--6-----|
C|-3--3----2--2----7--7----6--6-----|

Riff 2  (Verse)
D|------------------------------------------------|
A|------------------------------------------------|
F|------------------------------------------------|
C|------------------------------------------------|
G|------------------------------------------------|
C|-0h2-2-2-2b2-2-2-0h2-2-2-2b-2b------------------|

Riff 3  (Chorus)
D|------------------------------------------------------|
A|------------------------------------------------------|
F|------------------------------------------------------|
C|-3-3-3-3--2-2-2-2-------------7-7-7-7--6-6-6-6--------|
G|-3-3-3-3--2-2-2-2-------------7-7-7-7--6-6-6-6--------|
C|-3-3-3-3--2-2-2-2-------------7-7-7-7--6-6-6-6--------|
                  s                            s

Riff 4  (Interlude)
D|------------------------------|
A|------------------------------|
F|------------------------------|
C|-2-2--2-2--2-2--2-2-----------|
G|-2-2--2-2--2-2--2-2-----------|
C|-2-2--2-2--2-2--2-2-----------|
     s    s    s    s

Play Riffs in this order:
-Riff 1      6x
-Riff 2     18x
-Riff 3      4x
-Riff 4      4x
-Riff 2      4x while a second Guitar does something with the whammy bar
                (listen to the song and you will understand what I mean)
-Riff 1      4x
-Riff 3      2x
-Riff 4      1x(just play the first 4 chords)
-Riff 3      4x
Suggest correction
Give kudos to tab author, rate the tab!
1 2 3 4 5
comments
print report bad tab
6 comments total. Showing first comments.
0 reply
mr. riff 40 Jan 12, 2007 10:51 PM

I play the intro like this:

Tuning Bb-F-Bb-Eb-G-C

C|-------------------------------|
G|-------------------------------|
Eb|-------------------------------|
Bb|4-4-4-4-3-3-3-3-1-1-1-1-0-0-0-0|
F|4-4-4-4-3-3-3-3-1-1-1-1-0-0-0-0|
Bb|4-4-4-4-3-3-3-3-1-1-1-1-0-0-0-0|

0 reply
Chill 02 271 Apr 11, 2007 11:31 PM

The tuning's wrong. They play in B.

0 reply
Chill 02 271 Apr 11, 2007 11:37 PM

For starters, the intro should be like:

B|-------------------------------|
#F|------------------------------|
D|-------------------------------|
A|5-5-5-5-4-4-4-4-9-9-9-9-8-8-8-8|
E|5-5-5-5-4-4-4-4-7-7-7-7-6-6-6-6|
B|3-3-3-3-2-2-2-2-7-7-7-7-6-6-6-6|

guest
You may want to rate the tab now too:
select rating
Wanna post a correction for this tab? Suggest correction