Oops, an error
Loading. Please wait.

Mexican Radio Bass Tab

version 1
version 1

Whole song

Interactive

1,042 views 3 this week
1 commentread comment
1 2 3 4 5
please rate
add to favorites
launch autoscroll
font size
0
reset
guitar tuner
Autoscroll
slow
fast
+/-
esc
set tempo
stop
Help us to improve Ultimate-Guitar.com Take our survey!
×
Author
Artist: Celtic Frost.
Album:Parched Whit Thirst I'm Dieing.
Tuning:Standard.

---------------------------------------------|--------------------------------|
--------------------------------------------|-x2------------------------------|
---------2-/-3------2-/-3------2-/-3--3-3-3--|--------------------------------|
-0-0-0-0--------0-0--------0-0---------------|--------------------------------|

------------|----------|-----------|----------|-------------------------------|
------------------------------------------------------------------------------|
--7---7-7-7-|-5--5-5-5-|-2--2-2-2--|-0--0-0-0-|-------------------------------|
------------|----------|-----------|----------|-------------------------------|

-----------------|----------------------------------------------------------|
-----------------|----------------------------------------------------------|
---0-----------5-|----------------------------------------------------------|
-------0---3-----|----------------------------------------------------------|
 verse

--------------|--------------------------------------------------------------|
--------------|--------------------------------------------------------------|
--2----0---3--|--------------------------------------------------------------|
-----2--------|--------------------------------------------------------------|
 chorus
Suggest correction
Give kudos to tab author, rate the tab!
1 2 3 4 5
comments
print report bad tab
1 comment total.
0 reply
swave75 382 wrote on July 7 2012, 12:07 am

Awesome tab!!!!

guest
You may want to rate the tab now too:
select rating
Please do not post tabs as comments. Select "correction" instead!