Oops, an error
Loading. Please wait.

The Restless Seas Tab

140 views 1 this week
no commentswrite comment
1 2 3 4 5
please rate
add to favorites
launch autoscroll
font size
0
reset
how to read this tab
guitar tuner
Autoscroll
slow
fast
+/-
esc
set tempo
stop
Help us to improve Ultimate-Guitar.com Take our survey!
×
Author
                     Celtic Frost
        - The Restless Seas -
           Vanity/Nemesis
 
          tabbed by PelzR


A basic tab for the rythm. guitar for "The Restless Seas" by Celtic Frost.
Sorry, no solos. 

Tuning: Standard E (E A D G B E)


Description:
------------
. -> palm mute
^ -> tremolo (pitch down)
\ -> slide down
/ -> slide up


Riff Section:
-------------

Intro

E|----------------|-----------|----------------|-----------------|
B|----------------|-----------|----------------|-----------------|
G|----------------|-----------|----------------|-----------------|
D|----------------|-----------|----------------|-----------------|
A|-4--4-4-4-4-4-4-|-0-2--0-2--|-4--4-4-4-4-4-4-|-4-4-4-4-4-4-4-4-|
E|-2--2-2-2-2-2-2-|---0----0--|-2--2-2-2-2-2-2-|-2-2-2-2-2-2-2-2-|
      . . . . . .                  . . . . . .   . . . . . . . . 

Pre-Verse

E|----------------|---------------|------------------|-----------------|
B|----------------|---------------|------------------|-----------------|
G|----------------|---------------|------------------|-----------------|
D|----------------|---------------|------------------|-----------------|
A|-2------4/5-----|-5/7---5--5--2-|-(2)-2-2-2--2-2-2-|-2-2-2-2-2-2-2-2-|
E|-0--0-0-2/3-0-0-|-3/5-0-2--3--0-|-(0)-0-0-0--0-0-0-|-0-0-0-0-0-0-0-0-|
      . .     . .       .               . .    . . .   . . . . . . .
    
Verse 

E|---------------|-----------------|
B|---------------|-----------------|
G|---------------|-----------------|
D|-4-----------7-|-4---------------|
A|-4-4-4-4-4-4-7-|-4-4-4-4-3-3-3-3-|
E|-2-2-2-2-2-2-5-|-2-2-2-2-1-1-1-1-|
     . . . . .       . . . . . . .

Pre-Chorus


E|-----------------|-----------------|-----------------|-----------|
B|-----------------|-----------------|-----------------|-----------|
G|-----------------|-----------------|-----------------|-----------|
D|-----------------|---------4/5-----|-----------------|---------3-|
A|---------4/5---2-|---------2/3---2-|---------4/5---2-|---------1-|
E|-0-0-0-0-2/3-0-0-|-0-0-0-0-----0-0-|-0-0-0-0-2/3-0-0-|-0-0-0-0---|
   . . . .     .     . . . .     .     . . . .     .     . . . .

E|-----------------|-------------|---------------|------------------|
B|-----------------|-------------|---------------|------------------|
G|-----------------|-------------|---------------|------------------|
D|-----------------|---------4/5-|---------------|------------------|
A|---------4/5---2-|---------2/3-|---7----6----5-|-(5)---4--4-4-4-4-|
E|-0-0-0-0-2/3-0-0-|-0-0-0-0-----|-0-5--0-4--0-3-|-(3)-0-2--2-2-2-2-|
   . . . .     .     . . . .       .    .    .         .   


Chorus

E|-----------------|---------|-----------------|---------------|
B|-----------------|---------|-----------------|---------------|
G|-----------------|---------|-----------------|---------------|
D|-----------------|---------|-----------------|---------------|
A|-2-2-2-2-2-2-2-2-|-3-2-2-6-|-2-2-2-2-5-2-2-2-|-3-2-2-5--6--7-|
E|-0-0-0-0-0-0-0-0-|-1-0-0-4-|-0-0-0-0-3-0-0-0-|-1-0-0-3--4--5-|
   . . . .   . . .     . .     . . . .   . . .     . .


Break

E|---| use your        |-----|
B|---| guitar tremolo  |-----|
G|---| to pitch down,  |-----|
D|---| if you don't    |-----|
A|-2-| have one...     |-12\-|
E|-0-| slide down      |-12\-|
   ^
      
during the "bass only" part the guitar comes in  with some tremolo stuff ("diving")
I don't have a guitar with an tremolo system but the chords are something like this:

E|---|-----|---|-----|-----|
B|---|-----|---|-----|-----|
G|---|-----|---|-----|-----|
D|-5-|-(5)-|-7-|-(7)-|-----|
A|-5-|-(5)-|-7-|-(7)-|-12\-|
E|-3-|-(3)-|-5-|-(5)-|-12\-|
   ^    ^    ^    ^


Interlude
   
E|---------------|-------------|---------------|-----------|
B|---------------|-------------|---------------|-----------|
G|---------------|-------------|---------------|-----------| 
D|---------------|-------------|---------------|-----------| 
A|-5------5------|-5------3--3-|-5------5------|-5------/7-| 
E|-3--3-3-3--3-3-|-3--3-3-1--1-|-3--3-3-3--3-3-|-3-xxxx-/6-| 
      . .    . .      . .           . .    . .


Song Structure:
---------------
Intro       4x
Pre-Verse   4x
Verse       4x
Pre-Chorus  2x
Chorus      2x
Pre-Verse   2x
Verse       4x
Pre-Chorus  2x
Chorus      4x
Break       1x
Interlude   8x
Pre-Verse   2x
Verse       2x
Pre-Chorus  2x
Chorus      4x
Suggest correction
Give kudos to tab author, rate the tab!
1 2 3 4 5
comments
print report bad tab
guest
You may want to rate the tab now too:
select rating
Please do not post tabs as comments. Select "correction" instead!