Oops, an error
Loading. Please wait.

No Puedo Esperar tab

41 views 3 this week
no commentswrite comment
1 2 3 4 5
3 more votes to show rating
add to favorites
×
Save as Personal and add changes to this tab that will be seen only by you. Learn more ›
×
You can save this tab as Personal to edit and correct it or add notes. All changes will be seen only by you. Learn more »
launch autoscroll
font size
0
reset
how to read this tab
guitar tuner
edit
Autoscroll
slow
fast
+/-
esc
set tempo
stop
Esta es la versión acústica de 'No puedo esperar', grabada en el C.C 'La Noche' de Barranco.
Para mi amorzote Carolina, te amo demasiado,  siempre me siento animado, por verte y tenerte
junto a mi lado. JHLE!

Acordes:
                  EADGBe
         G     : (320033)
         Cadd9 : (x32033)
         C     : (x32010)
         Am    : (x02210)

*********************************************************************************************


Intro (Rasgueo)

G - Cadd9

e-----------------10/12---- ]
B---8/10/8v--8v---8/10----- |
G---7/9/7v----------------- |--- (Armónica)
D-------------------------- |
A-------------------------- |
E-------------------------- ]

(0:47) (Escuchar la cancion para el ritmo)

G - C                                                  Am

e------------12----10-----------------10----       e---12-------------------
B---13-12-------------13-12-----12-13-------       B--------12-10-----------
G---------12----12----------12-------------- x2    G--------------12--------
D-------------------------------------------       D------------------------
A-------------------------------------------       A------------------------
E-------------------------------------------       E------------------------

G - Cadd9

e----------------------------------------------------
B---------10-------10--------10-12----10-12-10-------
G---11-12----11-12----11-12--------12----------12---- x2
D----------------------------------------------------
A----------------------------------------------------
E----------------------------------------------------


G
Voy caminando por las calles
C
pensando en ti (pensando en ti)
G                             C
voy disfrutando imaginando tu dulce voz
            Am
llamando mi nombre, me siento bien...

G
Voy apurando el paso buscando
C
apurar el tiempo (apurar el tiempooo)
G                                   C
y me he dado cuenta que he caminado cientos de cuadras
           Am
y no estoy cansado...

G                        Cadd9        Am
me siento animado... por verte... tenerte...
           G            Cadd9         Am       (N.C)
junto a mi lado... y besarte... abrazarte... no puedo esperar.


(2:08) Piano

G - C                                                  Am

e------------12----10-----------------10----       e---12-------------------
B---13-12-------------13-12-----12-13-------       B--------12-10-----------
G---------12----12----------12-------------- x2    G--------------12--------
D-------------------------------------------       D------------------------
A-------------------------------------------       A------------------------
E-------------------------------------------       E------------------------

G - Cadd9

e----------------------------------------------------
B---------10-------10--------10-12----10-12-10-------
G---11-12----11-12----11-12--------12----------12---- x2
D----------------------------------------------------
A----------------------------------------------------
E----------------------------------------------------


G                                    C
Voy llegando a tu casa y te veo bajo el umbral
G                               C
gritandote: 'Abrázame, ven aqui estoy ya'
Am                           G
Una leve sonrisa tuya me hace correr chocando
                 C
con todo a mi alrededor (a mi alrededor)
G                               C
y siento una inmensa alegria dentro de mi
             Am
no puedo ocultarlo...

G                       Cadd9        Am
me siento animado... por verte... tenerte...
           G            Cadd9         Am       (N.C)
junto a mi lado... y besarte... abrazarte... no puedo esperar.


(3:28) Piano

G - C                                                  Am

e------------12----10-----------------10----       e---12-------------------
B---13-12-------------13-12-----12-13-------       B--------12-10-----------
G---------12----12----------12-------------- x2    G--------------12--------
D-------------------------------------------       D------------------------
A-------------------------------------------       A------------------------
E-------------------------------------------       E------------------------

G - Cadd9

e----------------------------------------------------
B---------10-------10--------10-12----10-12-10-------
G---11-12----11-12----11-12--------12----------12---- x2   ...G  (FIN)
D----------------------------------------------------
A----------------------------------------------------
E----------------------------------------------------


                   **********************************************************
                   * TE AMO CAROLINA (28/12/03) This love is neverending... *
                   **********************************************************
Suggest correction
Creating personal tab
Creating personal tab
You can edit any tab online and save it as your Personal.

You can edit, replace or remove any tab part or add personal notes – all changes will be seen only by you.

Personal tabs can be accessed anytime from any device, even offline.
Learn more »
Give kudos to tab author, rate the tab!
1 2 3 4 5
comments
print report bad tab
guest
Wanna post a correction for this tab? Suggest correction