Oops, an error
Loading. Please wait.

Una Vez Mas tab

12 views 1 this week
no commentswrite comment
1 2 3 4 5
3 more votes to show rating
add to favorites
×
Save as Personal and add changes to this tab that will be seen only by you. Learn more ›
×
You can save this tab as Personal to edit and correct it or add notes. All changes will be seen only by you. Learn more »
launch autoscroll
font size
0
reset
how to read this tab
guitar tuner
edit
Autoscroll
slow
fast
+/-
esc
set tempo
stop
D G D
---2-0-2--------0--------2-0-2------2-0-2-----------
---------3--0-3---3-0----------3----------3-----12--
-2---------------------2----------2-----------------
----------------------------------------------------
----------------------------------------------------
----------------------------------------------------


Bm            D
Una vez más, quiero creer
Bm               D
quiero volver contigo
 A             G
Hoy te busqué, sí te encontré
  Em              D G D
Y me sonreíste a mí.

Bm          D
Sin esconder nada esta vez
Bm                D
Vuelvo a creer contigo
 A                   G
Puede que al fin, algo vaya mal
 Em          D  G Bm D A Bm
Pero estaré ahí

(4/0-5/4-5/2)
Bm                 E
Y sin pensarlo, cayeron las palabras de amor
   G                                    D
Subieron de la esquina hasta el sol Por ti
Bm                     E
Y mientras tanto, yo siento que no hay nada mejor
    G                          A G A
Tus ojos sonriendo los dos Por mí

Bm             D
Una vez más, quiero saber
  Bm              D
Quiero querer contigo,
 A              G
Sin preguntar, sin responder,
 Em              D G D
Sólo te quiero a ti


---2-0-2--------0--------2-0-2------2-0-2-----------
---------3--0-3---3-0----------3----------3-----12--
-2---------------------2----------2-----------------
----------------------------------------------------
----------------------------------------------------
----------------------------------------------------

punteo:

---2-2--------2-2-3-2---
-3--3--------3-3------3-
-------4-2--------------
--------4---------------
------------------------
------------------------(x2)

-----2------3----------------7-5-------------------
--3-5-3---3------2-3-5-5+7-------7-5-7--7-5--4-4---
-4-4-----4-4-4------------------------------7------
---------------5-5-5-5-----------------------------
---------------------------------------------------
---------------------------------------------------

(4/0-5/4-5/2)
Bm                 E
Y sin pensarlo, cayeron las palabras de amor
   G                                    D
Subieron de la esquina hasta el sol Por ti
Bm                     E
Y mientras tanto, yo siento que no hay nada mejor
    G                          D D
Tus ojos sonriendo los dos Por tí
    D       D
por ti, por ti

            
            
Suggest correction
Creating personal tab
Creating personal tab
You can edit any tab online and save it as your Personal.

You can edit, replace or remove any tab part or add personal notes – all changes will be seen only by you.

Personal tabs can be accessed anytime from any device, even offline.
Learn more »
Give kudos to tab author, rate the tab!
1 2 3 4 5
comments
print report bad tab
guest
Wanna post a correction for this tab? Suggest correction