Oops, an error
Loading. Please wait.

Stay And Bleed tab

version 1
version 1

Whole song

Interactive

1,318 views 1 this week
1 commentread comment
1 2 3 4 5
2 more votes to show rating
add to favorites
×
Save as Personal and add changes to this tab that will be seen only by you. Learn more ›
×
You can save this tab as Personal to edit and correct it or add notes. All changes will be seen only by you. Learn more »
launch autoscroll
font size
0
reset
how to read this tab
guitar tuner
edit
Autoscroll
slow
fast
+/-
esc
set tempo
stop
-------------------------------------------------------------------------------
                             STAY AND BLEED - Cervello
-------------------------------------------------------------------------------
Tabbed by: Bisse07

It's not 100% accurate I think but it sounds really nice and close to the original 
if you learn it.


Tuning: 1/2 down

e|--------------------0-------------------------------------------------|
B|-------------3-------------3---------------0--------------------------|
G|----------------4-------------4-------/7-----7------------------------|
D|---------4------------------------4---/7------------------------------|
A|--2-------------------------------------------------------------------|
E|----------------------------------------------------2/3---------------|

e|--------------0-------------------------------------------------------|
B|------3--------------3----------2h3p2---------------------------------|
G|--4------4--------------4------------h4p2-----------------------------| <---- FAST PART!
D|-----------------------------------------h4p2p0-----------------------|
A|-----------------------------------------------2----------------------|
E|----------------------------------------------------------------------|

e|-------------0--------------------------------------------------------|
B|------3-------------3-------------------2/3--- LET RING --------------|
G|---------4-------------4----------------------------------------------|
D|--4------------------------4--------0---------0-----------------------|
A|----------------------------------4------4/5--------------------------|
E|----------------------------------------------------3-----------------|

e|--------------5-------------------------------------------------------|
B|------3--------------3----------0----------0--------------------------|
G|--4------4--------------4------7--6------4----------------------------|
D|---------------------------------7--7------4--------------------------|
A|---------------------------------5--0------2--------------------------|
E|----------------------------------------------------------------------|





...everytime I try, it feels so real...

           Alt.1                                 Alt.2
e|------------------------|          e|------------------------|
B|--2h3p2p0---------------|          B|------------------------|
G|---------2--------------|          G|--6h7p6-----------------|
D|------------------------|          D|-------9--7\------------|
A|------------------------|          A|------------------------|
E|------------------------|          E|------------------------|

Alt.2 is a bit harder to play but sounds more like the original since there is a slide in the end


PM me if you would like to improve something!


************************************

| /   slide up
| \   slide down
| h   hammer-on
| p   pull-off
| ~   vibrato
| +   harmonic
| x   Mute note
| b   Bend
| pb  Pre-bend
| br  Bend release
| pbr Pre-bend release
| brb Bend release bend

************************************

            
            
Suggest correction
Creating personal tab
Creating personal tab
You can edit any tab online and save it as your Personal.

You can edit, replace or remove any tab part or add personal notes – all changes will be seen only by you.

Personal tabs can be accessed anytime from any device, even offline.
Learn more »
Give kudos to tab author, rate the tab!
1 2 3 4 5
comments
print report bad tab
1 comment total.
0 reply
b.gauthier 10 Nov 26, 2013 07:15 PM

i think the first fast part is easier to play like this:

e------------------------------------------------------
B----2h3p2p0-------------------------------------------
G-----------2p0----------------------------------------
D--------------4p2-------------------------------------
A-----------------2------------------------------------
E------------------------------------------------------

other than that sounds good

guest
You may want to rate the tab now too:
select rating
Wanna post a correction for this tab? Suggest correction