Oops, an error
Loading. Please wait.

Popotitos chords

87 views 3 this week
no commentswrite comment
1 2 3 4 5
3 more votes to show rating
add to favorites
×
Save as Personal and add changes to this tab that will be seen only by you. Learn more ›
×
You can save this tab as Personal to edit and correct it or add notes. All changes will be seen only by you. Learn more »
launch autoscroll
font size
0
reset
transpose
0
reset
simplify chords
display chords
guitar tuner
edit
Autoscroll
slow
fast
+/-
esc
set tempo
stop
Strumming
There is no strumming pattern for this song yet. and get +5 IQ
Esta es una muy buena canción de ritmo chingón
y sencillo, si no encuentran el ritmo solo
escríbanme a mi mail y yo se los mando.


E
Mi amor eterno 

Es de mi novia popotitos [[ RIFF 1 ]]
E
Sus piernas son 

Como un par de carricitos [[ RIFF 1 ]]

A
Y cuando a una fiesta 

A levo A bailar [[ RIFF 2 ]]
E
Sus piernas flacas 

Se parecen ebrar [[ RIFF 1 ]]


B7             A
Popotitos no es un primor
B7            A 
Pero baila que da pavor
     E
A mi popotitos yo le doy mi amor [[ RIFF 3 ]]


E
Popotitos baila rock and roll [[ RIFF 1 ]]
E
Y no le ves ni con la luz del sol [[ RIFF 1 ]]
A
Con mi popotitos me voy a casar [[ RIFF 2 ]]
E
De hay en adelante la voy a alimentar  [[ RIFF 1 ]]

B7             A
Popotitos no es un primor
B7            A
Pero baila que da pavor
E     
A mi popotitos yo le doy mi amor [[ RIFF 4 ]] 


RIFF 1:                           RIFF 2: 
e|-----------------------------|  e|-----------------------------|
B|-----------------------------|  B|-----------------------------|
G|-----------------------------|  G|-------------2-2-0-----------|
D|-------------2-2-0-----------|  D|---------2-4-------4-2-2-4-2-|
A|---------2-4-------4-2-2-4-2-|  A|-0-0-3-4---------------------|
E|-0-0-3-4---------------------|  E|-----------------------------|


RIFF 3:
e|-------------------------------------------------------------|
B|-------------------------------------------------------------|
G|-------------------------------------------------------------|
D|----------------------------------------------2-2-0----------|
A|-9-9-9-9-9-9-9-9-7-7-7-7-7-7-7-7----------2-4-------4-2-2-4-2|
E|-7-7-7-7-7-7-7-7-5-5-5-5-5-5-5-5--0-0-3-4--------------------|

RIFF4:
e|-------------------------------------------------------------|
B|-------------------------------------------------------------|
G|-------------------------------------------------------------|
D|-------------2-2-0-------------------------------------------|
A|---------2-4-------4-2-2-4-2---------------------------------|
E|-0-0-3-4-----------------------------------------------------|

e|-------------------------------------------------------------|
B|-------------------------------------------------------------|
G|-------------------------------------------------------------|
D|----------------------------------------------2-2-0----------|
A|-9-9-9-9-9-9-9-9-7-7-7-7-7-7-7-7----------2-4-------4-2-2-4-2|
E|-7-7-7-7-7-7-7-7-5-5-5-5-5-5-5-5--0-0-3-4--------------------|

e|-------------------------------------------------------------|
B|-------------------------------------------------------------|
G|-------------------------------------------------------------|
D|-------------------------------------------------------------|
A|-2-2-2-6-6-6-7-7-7-8-8-8-9/3-3-2-----------------------------|
E|-0-0-0-4-4-4-5-5-5-6-6-6-7/1-1-0-----------------------------|

Espero que les guste y si no, ahi esta mi correo
para todas las quejas.

            
            
Suggest correction
Creating personal tab
Creating personal tab
You can edit any tab online and save it as your Personal.

You can edit, replace or remove any tab part or add personal notes – all changes will be seen only by you.

Personal tabs can be accessed anytime from any device, even offline.
Learn more »
Give kudos to tab author, rate the tab!
1 2 3 4 5
comments
print report bad tab
guest
Wanna post a correction for this tab? Suggest correction