Oops, an error
Loading. Please wait.

La Nuova Stella Di Broadway Chords

version 1
version 1

Whole song

Interactive

64,158 views 237 this week
4 commentsread comments
1 2 3 4 5
x 41
add to favorites
launch autoscroll
font size
0
reset
transpose
0
reset
simplify chords
display chords
guitar tuner
Autoscroll
slow
fast
+/-
esc
set tempo
stop
Help us to improve Ultimate-Guitar.com Take our survey!
×
Author
Cesare Cremonini - La nuova stella di Broadway

[Intro]

 Am               F                C  
e---------------------------------|---------------0----------------|
B-------1-------------------------|-------1-3p1--------------------|
G-----2-----2-----------2---------|-----2-------2------------------|
D---2---------2-------3-----3-----|--------------------------------|
A-0-----------------3---------3---|-3------------------------------|
E-----------------1---------------|--------------------------------|

e---------------------------------|--------------------------------|
B-------1-------------------------|-------1-3p1-1------------------|
G-----2-----2-----------2---------|-----0---------0----------------|
D---2---------2-------3-----3-----|--------------------------------|
A-0-----------------3---------3---|-3------------------------------|
E-----------------1---------------|--------------------------------|


[Verse]

           Am                     F 
Lui era un business-man, con un'idea in testa,
      C 
lei, ballerina di jazz. 
        Am                       F 
Leggeva William Blake, vicino a una finestra,
      C 
lui, beveva caffè.
          Am                       F 
Guardando quelle gambe muoversi pensò: "E' una stella!". 
 C 
Pensava a Fred Astaire...
          Em            Em7         Dm 
e chi non ha mai visto nascere una dea...
          Em            Em7         F       
e chi non ha mai visto nascere una dea,
       Fm          C 
non lo sa, che cos'è...
     Dm  G 
la felicità...


[Pre-Chorus]

 G                       Am        C 
Lui, garofano rosso e parole, una vecchia cabriolet...
 G                 Am         C 
Lei, vestita come la Rogers, fulmini e saette,
 G           E                 F 
lassù, nel cielo blu, il loro nome
   C            G 
argento fra le stelle


[Chorus]

 F             C    G                  Dm 
New York! New York! E' una scommessa d'amore,
      F               C    G                Dm 
tu chiamami e ti vestirò, come una stella di Broadway. 
 F             C    G                  Dm 
New York! New York! E' una scommessa d'amore,
      F               C    G 
tu chiamami e ti vestirò, come una stella di...

 Am   F   C  (x2)


[Verse]

           Am                  F 
Lui si svegliò senza lei, nudo nella tempesta,
   C 
là, fuori Union Square.
        Am                         F 
Entrava luce al neon, dal vetro di una finestra.
 C 
L'odore del caffè.
          Am                       F 
Guardando quelle gambe muoversi pensò: "E' una stella!". 
 C 
Pensava a Fred Astaire...
          Em            Em7         F       
e chi non ha mai visto nascere una dea,
       Fm          C 
non lo sa, che cos'è...
     Dm  G 
la felicità...


[Pre-Chorus]

 G                       Am        C 
Lui, garofano rosso e parole, una vecchia cabriolet...
 G                 Am         C 
Lei, vestita come la Rogers, fulmini e saette,
 G           E                 F 
lassù, nel cielo blu, il loro nome
   C            G 
argento fra le stelle


[Chorus]

 F             C    G                  Dm 
New York! New York! E' una scommessa d'amore,
      F               C    G                Dm 
tu chiamami e ti vestirò, come una stella di Broadway. 
 F             C    G                  Dm 
New York! New York! E' una scommessa d'amore,
      F               C    G 
tu chiamami e ti vestirò, come una stella di...



Original tab by QUIQUO (quiquo.altervista.org), edit by CampeJ90
Suggest correction
comments
print report bad tab
4 comments total. Showing first comments.
0 reply
galva94 417 Apr 16, 2013 09:20 AM

I think that the first is:
e---------------------------------|---------------0----------------|
B-------1-------------------------|-------1-3p1--------------------|
G-----2-----2-----------2---------|-----0-------0------------------|
D---2---------2-------3-----3-----|--------------------------------|
A-0-----------------3---------3---|-3------------------------------|
E-----------------1---------------|--------------------------------|

on the C chord, 0 instead of 2

0 reply
krikri1987 42 Jun 05, 2013 08:35 AM

pessima!!!

+1 reply
Gionni5 129 Jul 12, 2013 12:50 PM

Capo on 2!

guest
You may want to rate the tab now too:
select rating
Wanna post a correction for this tab? Suggest correction