Oops, an error
Loading. Please wait.

Vieni A Vedere Perche Tab

547 views 18 this week
no commentswrite comment
1 2 3 4 5
1 last vote to show rating
add to favorites
launch autoscroll
font size
0
reset
how to read this tab
guitar tuner
×
Best way to learn
"Vieni A Vedere Perche"
Autoscroll
slow
fast
+/-
esc
set tempo
stop
Author
Capo
4th fret
 E               Abm7             C#m7            B 
 |       |       |       |        |       |       |       |
E|0-----------0---2-----------4---|0-----------0---2---4---2-------|
A|--------0---------------0-------|--------0-------------------0---|
D|----1---------------1-----------|----1---------------------------|
G|2---------------1---------------|--------------------------------|
B|--------------------------------|4---------------2---------------|
E|--------------------------------|--------------------------------|

E               Abm7             C#m7            E 
|       |       |       |        |       |       |       |
E|0-----------0---2-----------4---|0-----------0---------------0---|
A|--------0---------------0-------|--------0-------0-------0-------|
D|----1---------------1-----------|----1---------------1-----------|
G|2---------------1---------------|--------------------------------|
B|--------------------------------|4---------------2---------------|
E|--------------------------------|--------------------------------|

 A               F#m              A               F#m 
 |       |       |       |        |       |       |       |
E|------------0-------------------|------------0-------------------|
A|2-------2---------------2-------|2-------2---------------2-------|
D|----2---------------2-----------|----2---------------2-----------|
G|----------------------------4---|----------------------------4---|
B|0-------------------------------|0-------------------------------|
E|----------------2---------------|----------------2---------------|

 A               B 
 |       |       |       |   *    |       |       |       |
E|--------0---2-----------2---4---|--------------------------------|
A|2---------------4---------------|--------------------------------|
D|----2---------------4-----------|--------------------------------|
G|--------------------------------|--------------------------------|
B|0---------------2---------------|--------------------------------|
E|--------------------------------|--------------------------------|


L'ultima nota (con l'asterisco) è in effetti un Eb, quindi il tab esatto
sarebbe:

A               B 
 |       |       |       |   *    |       |       |       |
E|--------0---2---------------7---|--------------------------------|
A|2-----------------------7-------|--------------------------------|
D|----2-----------8---------------|--------------------------------|
G|--------------------9-----------|--------------------------------|
B|0-------------------------------|--------------------------------|
E|----------------7---------------|--------------------------------|




Ho tabulato le note suonate dal piano dell'intro e della strofa.
La tonalità reale è G# ma per eseguire l'arpeggio è comodo un capotasto al
4º tasto. Gli accordi riportati sono dunque relativi al capotasto, quindi si 
parte con la posizione di E.

Bonzo
Suggest correction
Give kudos to tab author, rate the tab!
1 2 3 4 5
comments
print report bad tab
guest
You may want to rate the tab now too:
select rating
Wanna post a correction for this tab? Suggest correction