Oops, an error
Loading. Please wait.

El 5T O Teletubby tab

259 views 1 this week
2 commentsread comments
1 2 3 4 5
1 last vote to show rating
add to favorites
×
Save as Personal and add changes to this tab that will be seen only by you. Learn more ›
×
You can save this tab as Personal to edit and correct it or add notes. All changes will be seen only by you. Learn more »
launch autoscroll
font size
0
reset
how to read this tab
guitar tuner
edit
Autoscroll
slow
fast
+/-
esc
set tempo
stop
EL TAB COMPLETO DEL KINTO
-por si aka mi e-mail es br_13_rod@
AHI VA!!!!!! :


INTRO :

e/--------------------------------------------------------
b/--------------------------------------------------------
g/--10---------------------------------------------------- x4
D/--10-x5---------10------------8-----------10------------
A/---8------------10-x5---------8-x5--------10-x5---------
E/-----------------8------------6------------8------------


e/--------------------------------------------------------
b/--------------------------------------------------------
g/--10----------------------------------------------------
D/--10-x20------------------------------------------------
A/---8----------------------------------------------------
E/--------------------------------------------------------


F5                 C5          C5- B5-Bb5
Kisiera ser un teletuby nada mas
Bb5                   C5
Sin tener que estudiar?.sin tener ke trabajar
Bb5                                       Bb5-B5-C5
Cagando al aire libre y meando en el jardin
C5
Sin sentir vergüenza de enseñar mi pipilin


F5                 C5          C5-B5-Bb5
Kisiera ser un teletuby nada mas
Bb5               C5
Todo el dia calato?.con mis patas webeando
Bb5                                     Bb5-B5-C5
Fumandome la hierva todo el dia sin parar
C5
Y después si keremos entre todos a fornicar


CORO


F5       C5    Bb5       C5
  Kiero ser el kinto teletuby
F5         C5   Bb5            C5
  Kiero andar calato por el campo
      F5      C5         Bb5      C5      F5
Kiero ver el mundo color rosa y salir a jugar
   C5         Bb5     C5         F5
Colgandome la cosa y libre retorzar
    C5           Bb5          C
Corriendo por el campo y enchufarte una ves mas
F5   C5   Bb5      C5            F5
laaa laa, la la lá la una vez más
F5   C5   Bb5      C5            F5
laaa laa, la la lá la una vez más


 *SOLO*:

e/--------------------------------------------------------
b/----------13-13-11-10-----------10-10-10-10-11-13-------
G/10-10-10--------------10-10-10--------------------------  x2
D/--------------------------------------------------------
A/--------------------------------------------------------
E/--------------------------------------------------------


e/-------13-13----13----13--------------------------------
b/-13-13-------13----13----13--11-11-11-11--13-13-13-13---
g/-------------------------------------------------------- x2
D/--------------------------------------------------------
A/--------------------------------------------------------
E/--------------------------------------------------------


e/-----------------10-10-------------------10-10----------
b/--------13-11-13-------13-------13-11-13-------13-11----
g/-10-10--------------------10-10------------------------- x2
D/--------------------------------------------------------
A/--------------------------------------------------------
E/--------------------------------------------------------

e/--------------------------------------10-10--12-12--13--
b/-10-10---10---11-11---11---13-13--13--------------------
g/--------------------------------------------------------
D/--------------------------------------------------------
A/--------------------------------------------------------
E/--------------------------------------------------------

En todo el solo se tokan las notas de la estrofa (F5 C5 Bb5 C5)

Luego sigue el coro:


F5       C5     Bb5       C5
Kiero ser el kinto teletuby
F5        C5    Bb5         C5
Kiero andar tolaka por el campo
      F5      C5         Bb5       C5       F5
Kiero ver el mundo color rosa y salir a jugar
   C5         Bb5    C5           F5
Colgandome la cosa y libre retozar
    C5           Bb5         C
Corriendo por el campo  enchufarte una ves mas
F5   C5   Bb5      C5         F5
laaa laa, la la lá la una vez más
F5   C5   Bb5      C5         F5
laaa laa, la la lá la una vez más


Y una ves mas
F5-C5-Bb5-C5
LA LA LA LA LA LA

Gracias, espero les sirva para tocar esta buenisima cancion.
Salu2

            
            
Suggest correction
Creating personal tab
Creating personal tab
You can edit any tab online and save it as your Personal.

You can edit, replace or remove any tab part or add personal notes – all changes will be seen only by you.

Personal tabs can be accessed anytime from any device, even offline.
Learn more »
Give kudos to tab author, rate the tab!
1 2 3 4 5
comments
print report bad tab
2 comments total.
0 reply
alvaromurosotel 11 Nov 28, 2015 09:41 AM

Deberías mejorarla un poco, así la canción sea simple con mayor razón es más facil de ponerla en tablaturas xd

0 reply
alvaromurosotel 11 Nov 28, 2015 09:41 AM

Deberías mejorarla un poco, así la canción sea simple con mayor razón es más facil de ponerla en tablaturas xd

guest
Wanna post a correction for this tab? Suggest correction