Oops, an error
Loading. Please wait.

Guardo Mi Lamento tab

66 views 1 this week
no commentswrite comment
1 2 3 4 5
3 more votes to show rating
add to favorites
×
Save as Personal and add changes to this tab that will be seen only by you. Learn more ›
×
You can save this tab as Personal to edit and correct it or add notes. All changes will be seen only by you. Learn more »
launch autoscroll
font size
0
reset
how to read this tab
guitar tuner
edit
Autoscroll
slow
fast
+/-
esc
set tempo
stop
Intro

              F#m        C#m
e|----------7-9-7---7---12-12-12-14-12-11-12--
B|-----6-7--------10--------------------------
G|-6-8----------------------------------------
D|--------------------------------------------
A|--------------------------------------------
E|--------------------------------------------

   A                      G#                    C#m      C#7
e|-12-------12-16-14-12---11--------11-14-12-11-12.-11-12-13--
B|----14---------------------13-------------------------------
G|-------13---------------------13----------------------------
D|------------------------------------------------------------
A|------------------------------------------------------------
E|------------------------------------------------------------

              F#m        C#m
e|----------7-9-7---7---12-12-12-14-12-11-12--
B|-----6-7--------10--------------------------
G|-6-8----------------------------------------
D|--------------------------------------------
A|--------------------------------------------
E|--------------------------------------------

   A                      G#                    C#m
e|-12-------12-16-14-12---11--------11-14-12-11-9--
B|----14---------------------13--------------------
G|-------13---------------------13-----------------
D|-------------------------------------------------
A|-------------------------------------------------
E|-------------------------------------------------

                 G#                               C#m
e|-9-11-9-11-9-8h9h8-------------11-12-11-12-11-9h11h9------------
B|-------------------9---7h9-9-------------------------9---7h9-9--
G|---------------------8---------------------------------9--------
D|----------------------------------------------------------------
A|----------------------------------------------------------------
E|----------------------------------------------------------------

                   G#                                  C#m
e|-9-11-9-11-9-8-8h9h8--------------------------------------
B|---------------------10-10h12h10--9-9h10h9---------7-7h9--
G|-------------------------------------------8-9-8-9--------
D|----------------------------------------------------------
A|----------------------------------------------------------
E|----------------------------------------------------------

                 G#                               C#m
e|-9-11-9-11-9-8h9h8-------------11-12-11-12-11-9h11h9------------
B|-------------------9---7h9-9-------------------------9---7h9-9--
G|---------------------8---------------------------------9--------
D|----------------------------------------------------------------
A|----------------------------------------------------------------
E|----------------------------------------------------------------

                   G#                                       C#m
e|-9-11-9-11-9-8-8h9h8-------------------------------------------|
B|---------------------10-10h12h10--9-9h10h9---------------------|
G|-------------------------------------------8-9-8-9-8-9-8-9-8-7-|
D|---------------------------------------------------------------|
A|---------------------------------------------------------------|
E|---------------------------------------------------------------|


            F#m            C#m
Me hiere el agua que yo bebía
        G#                 C#m
era la fuente , de mi alegría,
        F#m                C#m
sentí orgulllo de andar con ella
          G#               C#m
saber lo suyo, que era tan bella .


              F#m              C#m
Hoy le he perdido , sangra mi pecho
         G#                 C#m
pero ninguna... ?????

                   F#m
Voy a guardar mi lamento
                      C#m
para cuando yo este solo
                    G#
voy a guardar mi lamento
                      C#m
para cuando yo este solo.


*Repetir Intro


            F#m            C#m
Me hiere el ???? que yo creía
        G#             C#m
era la ley que no existia,
         F#m            C#m
era el cimiento de mi futuro
          G#               C#m
vino el viento mi amor fue puro.


              F#m              C#m
Hoy le he perdido , sangra mi pecho
         G#                 C#m
pero ninguna... ?????

                   F#m
Voy a guardar mi lamento
                      C#m
para cuando yo este solo
                    G#
voy a guardar mi lamento
                      C#m
para cuando yo este solo.


Solo: (F#m - C#m - G# - C#m - C#7)
e|-9-9-9-9-9-9-----------------9-11-9-11-9-11s12-9----
B|-------------10----9-10-12-----------------------9--
G|----------------11----------------------------------
D|----------------------------------------------------
A|----------------------------------------------------
E|----------------------------------------------------

e|-4-4-4-4-4-5-4----------------------7-5-4h5h4--|
B|---------------7-4-----4--4-5-4-5-7------------|
G|-------------------6-5-------------------------|
D|-----------------------------------------------|
A|-----------------------------------------------|
E|-----------------------------------------------|

F#m - C#m - G# - C#m - C#7

                   F#m
Voy a guardar mi lamento
                      C#m
para cuando yo este solo.


                   --------
                º-| ¤    ¤ |-º
                º-|  LuïS  |-º
                º-| ¤    ¤ |-º
                          /
                    |    |
        ·===========================·
        | luis_6cuerdas@ |
        ·===========================·
Suggest correction
Creating personal tab
Creating personal tab
You can edit any tab online and save it as your Personal.

You can edit, replace or remove any tab part or add personal notes – all changes will be seen only by you.

Personal tabs can be accessed anytime from any device, even offline.
Learn more »
Give kudos to tab author, rate the tab!
1 2 3 4 5
comments
print report bad tab
guest
Wanna post a correction for this tab? Suggest correction