Oops, an error
Loading. Please wait.

Soy Provinciano bass

31 views 1 this week
no commentswrite comment
1 2 3 4 5
3 more votes to show rating
add to favorites
×
Save as Personal and add changes to this tab that will be seen only by you. Learn more ›
×
You can save this tab as Personal to edit and correct it or add notes. All changes will be seen only by you. Learn more »
launch autoscroll
font size
0
reset
guitar tuner
edit
Autoscroll
slow
fast
+/-
esc
set tempo
stop
Intro solo guitarra un rasgueo G - Em luego entra el bajo
1
E ------------------------------------------------
A ------5--------5----7--------7------------------
D -5--------5-------------10--------9--7--5-------
G ----7---------7----------10-----9---------------
2
E --------------------------------7---------------
A ------5--------5----7---------7---7----5----3---
D -5--------5-------------10----------------------
G ----7---------7----------10---------------------
3
E ------------------------------------------------
A -3------5------7------7---5---3-----------------
D ----5------7------9-----------------------------
G -----5------7------9----9---9-------------------
4
E ------------------------------------------------
A -3------5------7------7--7----------------------
D ----5------7------9----9--9---------------------
G -----5------7------9----9--9--------------------repite3
5
E ------------------------------------------------
A -3------5------7------7---5---3-----------------
D ----5------7------9-----------------------------
G -----5------7------9----9---9-------------------
6
E ------------------------------------------------
A -55---7-----------------------------------------
D --------4-5-------------------------------------
G ------------------------------------------------
(ojo) Too eso es el intro lo demas es lo mismo si no k entra otra nota
canto
3
E ------------------------------7---7-------------
A -3-----3----5----5-----7---7----9--9------------
D ----5----5----7----7----9----9---9--9-----------
G -----5----5----7----7----9----9-----------------

E ------------------------------------------------
A -3------5------7-------7--5--3------------------
D ----5------7------9-----------------------------
G -----5------7------9--------------------------
Busca la adrenalina de esta ciudad ah ah..


  LUEGO SE REPITE LO MISMO
ESO ESTODO MI NOMBRE ES STUAR MI MSN stuar_unico@
Te kiero mi lokita
------> StU@r <-----< zom0oz Pk0oz Pr0o Lk0oz > Prom0o
2oo9 ^^ 

            
            
Suggest correction
Creating personal tab
Creating personal tab
You can edit any tab online and save it as your Personal.

You can edit, replace or remove any tab part or add personal notes – all changes will be seen only by you.

Personal tabs can be accessed anytime from any device, even offline.
Learn more »
Give kudos to tab author, rate the tab!
1 2 3 4 5
comments
print report bad tab
guest
Wanna post a correction for this tab? Suggest correction