Oops, an error
Loading. Please wait.

Ven Mi Amor tab

89 views 1 this week
no commentswrite comment
1 2 3 4 5
3 more votes to show rating
add to favorites
×
Save as Personal and add changes to this tab that will be seen only by you. Learn more ›
×
You can save this tab as Personal to edit and correct it or add notes. All changes will be seen only by you. Learn more »
launch autoscroll
font size
0
reset
how to read this tab
guitar tuner
edit
Autoscroll
slow
fast
+/-
esc
set tempo
stop
Hola amigos, ke tal aki les traigo una
Colaboración más de tablaturas de chakalon,
me parece ke kuando eskuche esto
lo eskuche en otra version, pero bueno ahí esta:

Ven mi amor

Este es el comienzo de la kanción:

(1)
e|10-12-14-10-12-14-12-14--------------------------------------|
B|-----------------------15-15/17-15-14-17-17-17-15-17-19-17-15|
G|-------------------------------------------------------------|
D|-------------------------------------------------------------|
A|-------------------------------------------------------------|
E|-------------------------------------------------------------|

(2)
e|10-12-14-10-12-14-12-14--------------------------------------|
B|------------------------15b-15/17-15-14----------------------|
G|----------------------------------------14/16-16-------------|
D|-------------------------------------------------------------|
A|-------------------------------------------------------------|
E|-------------------------------------------------------------|

Luego el solo:
(ke en la parte ultima no se si esta bien,
pero es un acerkamiento)

e|----------------12/14/12-10-9-10-9---------------------------|
B|----12-----------------------------12------------------------|
G|/11----11-14-12----------------------------------------------|x2
D|-------------------------------------------------------------|
A|-------------------------------------------------------------|
E|-------------------------------------------------------------|

e|/14-14-14-12---12--------------------------------------------|
B|------------15----15-14--/17-17-17-15-17-19-17-15------------|
G|-------------------------------------------------------------|
D|-------------------------------------------------------------|
A|-------------------------------------------------------------|
E|-------------------------------------------------------------|

e|/14-14-14-12---12--------------------------------------------|
B|------------15----15-14--/17-17-17-15-14-15-14---------------|
G|-----------------------------------------------16------------|
D|-------------------------------------------------------------|
A|-------------------------------------------------------------|
E|-------------------------------------------------------------|

Repetir el segundo comienzo (2) dos veces.

Espero ke les guste, y ya saben
Kualkier kosa a mi korreo: jf_nightmare_11@

            
            
Suggest correction
Creating personal tab
Creating personal tab
You can edit any tab online and save it as your Personal.

You can edit, replace or remove any tab part or add personal notes – all changes will be seen only by you.

Personal tabs can be accessed anytime from any device, even offline.
Learn more »
Give kudos to tab author, rate the tab!
1 2 3 4 5
comments
print report bad tab
guest
Wanna post a correction for this tab? Suggest correction