Oops, an error
Loading. Please wait.

November Tab

7 views 1 this week
no commentswrite comment
1 2 3 4 5
3 more votes to show rating
add to favorites
launch autoscroll
font size
0
reset
how to read this tab
guitar tuner
Autoscroll
slow
fast
+/-
esc
set tempo
stop
Help us to improve Ultimate-Guitar.com Take our survey!
×
Author
Difficulty
intermediate
[Intro]

e|---------------------------------------------------------------------------|
B|---1-1-1---1-1-1---1-1-1---1-1-1---1-1-1---1-1-1---1-1-1---1-1-1-----------|
G|---2-2-2---2-2-2---2-2-2---2-2-2---0-0-0---0-0-0---0-0-0---0-0-0-----------|
D|---2-2-2---2-2-2---2-2-2---2-2-2---2-2-2---2-2-2---2-2-2---2-2-2-----------|
A|-0-------0-------0-------0-------3-------3-------3-------3-----------------|
E|---------------------------------------------------------------------------|

[Solo]

e|---------------------------------------------------------------------------|
B|---------------------------------------------------------------------------|
G|---------------------------------------------------------------------------|
D|------------------------------------------------------------5-7------------|
A|----------------------------------------------------------/7---------------|
E|---------------------------------------------------------------------------|

e|---------------------------------------------------------------------------|
B|---1-1-1---1-1-1---1-1-1---1-1-1---1-1-1---1-1-1---1-1-1---1-1-1-----------|
G|---2-2-2---2-2-2---2-2-2---2-2-2---0-0-0---0-0-0---0-0-0---0-0-0-----------|
D|---2-2-2---2-2-2---2-2-2---2-2-2---2-2-2---2-2-2---2-2-2---2-2-2-----------|
A|-0-------0-------0-------0-------3-------3-------3-------3-----------------|
E|---------------------------------------------------------------------------|


e|---------------------------------------------------------------------------|
B|-------------------------------------------------------8-------------------|
G|-------------5--------------5-7/9----------7-5-7/9---9-----9-7-5-----------|
D|-7-------------7----------7---------------------------------------------7--|
A|---------------------------------------------------------------------------|
E|---------------------------------------------------------------------------|


[Verse]

e|---------------------------------------------------------------------------|
B|---1-1-1---1-1-1---1-1-1---1-1-1---1-1-1---1-1-1---1-1-1---1-1-1-----------|
G|---2-2-2---2-2-2---2-2-2---2-2-2---0-0-0---0-0-0---0-0-0---0-0-0-----------|
D|---2-2-2---2-2-2---2-2-2---2-2-2---2-2-2---2-2-2---2-2-2---2-2-2-----------|
A|-0-------0-------0-------0-------3-------3-------3-------3-----------------|
E|---------------------------------------------------------------------------|
   
   How can you be sick for so long, was it just some thing that I said
   I haven't seen your face in so long, I don't know whats going on in my head


[Chorus]
e|---------------------------------------------------------------------------|
B|---1---1--1---1-----1---1--1---1-------------------------------------------|
G|---2---2--2---2-----0---0--0---0-------------------------------------------|
D|---2---2--2---2-----2---2--2---2-------------------------------------------|
A|-0---0------0-----3---3------3---------------------------------------------|
E|---------------------------------------------------------------------------|

e|12-------12-------12-------12----------------------------------------------|
B|---13-------13-------13-------13-------------------------------------------|
G|------14-------14-------12-------12----------------------------------------|
D|---------------------------------------------------------------------------|
A|---------------------------------------------------------------------------|
E|---------------------------------------------------------------------------|
 
   Baby its been three weeks now
                  When losing you was my fear
   Baby I don't think I can do this now
                  I think I could go sleep for a year

[Verse]

e|---------------------------------------------------------------------------|
B|---1-1-1---1-1-1---1-1-1---1-1-1---1-1-1---1-1-1---1-1-1---1-1-1-----------|
G|---2-2-2---2-2-2---2-2-2---2-2-2---0-0-0---0-0-0---0-0-0---0-0-0-----------|
D|---2-2-2---2-2-2---2-2-2---2-2-2---2-2-2---2-2-2---2-2-2---2-2-2-----------|
A|-0-------0-------0-------0-------3-------3-------3-------3-----------------|
E|---------------------------------------------------------------------------|

   I will wake up in November, and see the sky is grey
   You will be trying to remember, why I went away



[Chorus]

e|---------------------------------------------------------------------------|
B|---1---1--1---1-----1---1--1---1-------------------------------------------|
G|---2---2--2---2-----0---0--0---0-------------------------------------------|
D|---2---2--2---2-----2---2--2---2-------------------------------------------|
A|-0---0------0-----3---3------3---------------------------------------------|
E|---------------------------------------------------------------------------|

e|12-------12-------12-------12----------------------------------------------|
B|---13-------13-------13-------13-------------------------------------------|
G|------14-------14-------12-------12----------------------------------------|
D|---------------------------------------------------------------------------|
A|---------------------------------------------------------------------------|
E|---------------------------------------------------------------------------|
 
   Baby its been three weeks now
                  When losing you was my fear
   Baby I don't think I can do this now
                  I think I could go sleep for a year


[2nd solo]

e|---------------------------------------------------------------------------|
B|---------------------------------------------------------------------------|
G|---5-7/9---7-5-7-5-------5-------------------------------------------------|
D|-7-----------------7-5-7---7-----------------------------------------------|
A|---------------------------------------------------------------------------|
E|---------------------------------------------------------------------------|

e|---------------------------------------------------------------------------|
B|---------8-10-10--/13-12-10-12-8-10-5--------------------------------------|
G|---5-7/9-------------------------------------------------------------------|
D|-7-------------------------------------------------------------------------|
A|---------------------------------------------------------------------------|
E|---------------------------------------------------------------------------|

[End]

e|---------------------------------------------------------------------------|
B|-0-------------------------------------------------------------------------|
G|-0-------------------------------------------------------------------------|
D|-2-------------------------------------------------------------------------|
A|-3-------------------------------------------------------------------------|
E|---------------------------------------------------------------------------|


************************************

| /  Slide up

************************************
Suggest correction
Give kudos to tab author, rate the tab!
1 2 3 4 5
comments
print report bad tab
guest
You may want to rate the tab now too:
select rating
Wanna post a correction for this tab? Suggest correction