Oops, an error
Loading. Please wait.

Labasa Chords

37 views 1 this week
no commentswrite comment
1 2 3 4 5
3 more votes to show rating
add to favorites
launch autoscroll
font size
0
reset
transpose
0
reset
simplify chords
display chords
guitar tuner
Autoscroll
slow
fast
+/-
esc
set tempo
stop
Help us to improve Ultimate-Guitar.com Take our survey!
×
Author
Difficulty
intermediate
About this tab version
The first version of this song. Was this info helpful? Yes No
-------------------------------------------------------------------------------
                         Chad Valley - Labasa
-------------------------------------------------------------------------------
Tabbed by: Stefan Premovic

Artist: http://www.chadvalley.net/
Song:   https://www.youtube.com/watch?v=k1QSX5ImCYg

Tuning: Standard

[Chords]
   C#m   E     G#m   A     B     F#m   C#m   E5    Bsus4 Badd11
e|-4-----4-----4-----0-----2-----2---|-0-----0-----0-----0----------|
B|-5-----5-----4-----2-----4-----2---|-5-----5-----5-----4----------|
G|-6-----4-----4-----2-----4-----2---|-6-----4-----4-----4----------|
D|-6-----6-----6-----2-----4-----4---|-6-----2-----4-----4----------|
A|-4-----7----(6)----0-----2----(4)--|-4-----------2-----2----------|
E|------------(4)---------------(2)--|------------------------------|
                                     | -> alternative chords in the chorus

[Intro]
   C#m

[Verse 1]
     E                          G#m A
   This time man, I feel the wind blow
   B                   C#m    A
   I won't know which way to go
    A                       B          C#m
   Now all the lights are blurring into one
    B              E        G#m C#m
   Burning like a soldier in the sun
      E                          G#m A   
   If I were just a saint, I'd do no  wrong
   B                 C#m        A
   I would know to stay this strong
    A               B               C#m
   Penny black and pouring from your gun
     B             E     G#m
   Blister in the morning sun


[Chorus] (play regular chords or tab below / alternative chords)

C#m      F#m G#m        A
   I surrender your love
    E                  B                C#m
   Have a lot of time left, don't let go
              F#m  G#m           A
   Don't you lose faith once more
    E                     B        C#m
   Haven't lost sight of going home

   C#m                             F#m           G#m
e|-------------------------7-------5-------------4-----------------|
B|-----------------------------5---------------------------0---2---|
G|-----------------------------------------------------------------|
D|-----------------------------------------------------------------|
A|-4---------------------------------------------------------------|
E|---------------------------------2-------------4-----------------|
   A                               E             Bsus4 Badd11  C#m 
e|-------------------------------(-0-0-0---0---0-0-----0---0---0-)-|*
B|---------------------------------5-5-5---5---5-5-----4---4---5---|
G|---------------------------------4-4-4---4---4-4-----4---4---6---|
D|---------------------------------2-------------------------------|
A|-0---------------------------------------------2-----------------|
E|-----------------------------------------------------------------|
   * - notes on high E string are optional
   C#m                             F#m           G#m
e|-------------------------7-------5-------------4-----------------|
B|-----------------------------5---------------------------0---2---|
G|-----------------------------------------------------------------|
D|-----------------------------------------------------------------|
A|-4---------------------------------------------------------------|
E|---------------------------------2-------------4-----------------|
   A                               E             Bsus4 Badd11  C#m  
e|-------------------------------(-0-0-0---0---0-0-----0-------0-)-|
B|---------------------------------5-5-5---5---5-5-----4-------5---|
G|---------------------------------4-4-4---4---4-4-----4-------6---|
D|---------------------------------2-------------------------------|
A|-0---------------------------------------------2-----------------|
E|-----------------------------------------------------------------|

[Verse 2]
    E                          G#m  A
   Be my rocking horse, I'll be your gun
   B                 C#m     A
   I don't know what I've become
    A              B             C#m
   Raking all the piles of broken leaves
     B               E      G#m A
   Growing from the roots of trees
    A               B                C#m
   You seem like a soul who's done no wrong
    B                 E        G#m C#m
   Heaven has sent a soldier over   son


[Chorus] x3 (same as above, play chords or tab)

C#m      F#m G#m        A
   I surrender your love
    E                  B                C#m
   Have a lot of time left, don't let go
              F#m  G#m           A
   Don't you lose faith once more
    E                     B        C#m
   Haven't lost sight of going home


  - melody after third repeat
e|-------------------------7-------5-------------4-----------------|
B|-----------------------------5---------------------------0---2---|
G|-----------------------------------------------------------------|
D|-----------------------------------------------------------------|
A|-----------------------------------------------------------------|
E|-----------------------------------------------------------------|

[Outro] 
(play tab below until the end)
 
   A   C#m         A   C#m         A   C#m *
e|-5---4-----------5---4-----------5---4-------|
B|-5---5-----------5---5-----------5---5---7---|
G|-6---6-----------6---6-----------6---6-------|
D|---------------------------------------------|
A|---------------------------------------------|
E|---------------------------------------------|

A C#m   A C#m   A C#m *   x4 

A C#m        A C#m  A C#m *
   It's so grey, I lied,
        A C#m        A C#m     
   I'm never coming home,
        A C#m *     A C#m
   I'm never gonna love
         A C#m  A C#m *  A C#m          A C#m
   Code red, I sense, I never want to know
         A    C#m    *       A C#m
   Your good kid will never come
       A C#m    A C#m  *    A    C#m            A C#m
   My life is blessed with something great of them
        A    C#m  *         A C#m
   The good time, life of bliss
   A   C#m  A   C#m *  A
   All I   can say is sorry that I gave
   N.C.
   Too much of nothing else


************************************
Suggest correction
Give kudos to tab author, rate the tab!
1 2 3 4 5
comments
print report bad tab
guest
You may want to rate the tab now too:
select rating
Wanna post a correction for this tab? Suggest correction