Oops, an error
Loading. Please wait.

Through These Eyes Tab

7 views 1 this week
no commentswrite comment
1 2 3 4 5
3 more votes to show rating
add to favorites
launch autoscroll
font size
0
reset
how to read this tab
guitar tuner
Autoscroll
slow
fast
+/-
esc
set tempo
stop
Help us to improve Ultimate-Guitar.com Take our survey!
×
Author
Difficulty
novice
[Intro]         

e|--------|
b|--------|
G|--------|
D|--------|
A|--/7~~--|
E|--------|


[Verse]

e|------------------------------------------------------------------|
b|------------------------------------------------------------------|
G|--9-9-9-9-9--9-5-5-5-5--9-9-9-9-9--10-10-10-10--12-12-12----------|
D|--9-9-9-9-9--9-5-5-5-5--9-9-9-9-9---------------------------------|
A|--7-7-7-7-7--7/3-3-3-3--7-7-7-7-7--8--8--8--8---10-10-10----------| x2
E|------------------------------------------------------------------|
    . . . . . (only on second repetition)

[Chorus]

e|---------------------------------------------------------------------------|
b|---------------------------------------------------------------------------|
G|--5------5--9-9-9-9-9---5------5--9----------------------------------------|
D|--5-7--5-5--9-9-9-9-9---5-7--5-5--9----------------------------------------|
A|--3-7--5-3--7-7-7-7-7---3-7--5-3--7----------------------------------------| x2
E|----5--3------------------5--3---------------------------------------------|


[Verse]

e|------------------------------------------------------------------|
b|------------------------------------------------------------------|
G|--9-9-9-9-9--9-5-5-5-5--9-9-9-9-9--10-10-10-10--12-12-12----------|
D|--9-9-9-9-9--9-5-5-5-5--9-9-9-9-9---------------------------------|
A|--7-7-7-7-7--7/3-3-3-3--7-7-7-7-7--8--8--8--8---10-10-10----------| x2
E|------------------------------------------------------------------|
    . . . . . (only on second repetition)


[Chorus]

e|---------------------------------------------------------------------------|
b|---------------------------------------------------------------------------|
G|--5------5--9-9-9-9-9---5------5--9----------------------------------------|
D|--5-7--5-5--9-9-9-9-9---5-7--5-5--9----------------------------------------|
A|--3-7--5-3--7-7-7-7-7---3-7--5-3--7----------------------------------------| x2
E|----5--3------------------5--3---------------------------------------------|


[Break]

e|---------------------------------------------------------------------------|
b|---------------------------------------------------------------------------|
G|--4-4-4-4-4--7-7-7-7-7-7---4-4-4-4-4--7-7-7--5-5-5-5-----------------------|
D|---------------------------------------------------------------------------|
A|--2-2-2-2-2--5-5-5-5-5-5---2-2-2-2-2--5-5-5--3-3-3-3-----------------------| x4
E|---------------------------------------------------------------------------|
  

[Bridge]

e|---------------------------------------------------------------------------|
b|---------------------------------------------------------------------------|
G|--5------5--9-9-9-9-9---5------5--9----------------------------------------|
D|--5-7--5-5--9-9-9-9-9---5-7--5-5--9----------------------------------------|
A|--3-7--5-3--7-7-7-7-7---3-7--5-3--7----------------------------------------|
E|----5--3------------------5--3---------------------------------------------|


[Verse]

e|------------------------------------------------------------------|
b|------------------------------------------------------------------|
G|--9-9-9-9-9--9-5-5-5-5--9-9-9-9-9--10-10-10-10--12-12-12----------|
D|--9-9-9-9-9--9-5-5-5-5--9-9-9-9-9---------------------------------|
A|--7-7-7-7-7--7/3-3-3-3--7-7-7-7-7--8--8--8--8---10-10-10----------| x2
E|------------------------------------------------------------------|
    . . . . . (only on second repetition)

[Chorus]

e|---------------------------------------------------------------------------|
b|---------------------------------------------------------------------------|
G|--5------5--9-9-9-9-9---5------5--9----------------------------------------|
D|--5-7--5-5--9-9-9-9-9---5-7--5-5--9----------------------------------------|
A|--3-7--5-3--7-7-7-7-7---3-7--5-3--7----------------------------------------| x2
E|----5--3------------------5--3---------------------------------------------|
 

[Outro]

e|---------------------------------------------------------------------------|
b|---------------------------------------------------------------------------|
G|--9-9-9-9-9-9-9-9-9-9--9-9-9-9---------------------------------------------|
D|--9-9-9-9-9-9-9-9-9-9--9-9-9-9---------------------------------------------|
A|--7-7-7-7-7-7-7-7-7-7--7-7-7-7---------------------------------------------|
E|---------------------------------------------------------------------------|
      . .   . .   . .


************************************

| /  Slide up
| ~  Vibrato

************************************
Suggest correction
Give kudos to tab author, rate the tab!
1 2 3 4 5
comments
print report bad tab
guest
You may want to rate the tab now too:
select rating
Wanna post a correction for this tab? Suggest correction