Oops, an error
Loading. Please wait.

Through These Eyes Tab

61 views 3 this week
2 commentsread comments
1 2 3 4 5
2 more votes to show rating
add to favorites
×
Save as Personal and add changes to this tab that will be seen only by you. Learn more ›
launch autoscroll
font size
0
reset
how to read this tab
guitar tuner
Autoscroll
slow
fast
+/-
esc
set tempo
stop
Author
Difficulty
novice
[Intro]         

e|--------|
b|--------|
G|--------|
D|--------|
A|--/7~~--|
E|--------|


[Verse]

e|----------------------------------------------------------------------|
b|----------------------------------------------------------------------|
G|--9-9-9-9-9-9--9-5-5-5-5--5/9-9-9-9-9--10-10-10-10--12-12-12----------|
D|--9-9-9-9-9-9--9-5-5-5-5--5/9-9-9-9-9---------------------------------|
A|--7-7-7-7-7-7--7/3-3-3-3--3/7-7-7-7-7--8--8--8--8---10-10-10----------| 
E|----------------------------------------------------------------------|

e|----------------------------------------------------------------------|
b|----------------------------------------------------------------------|
G|-----------------9-5-5-5-5--5/9-9-9-9-9--10-10-10-10--12-12-12--------|
D|--2-2-2-2-2-2----9-5-5-5-5--5/9-9-9-9-9-------------------------------|
A|--2-2-2-2-2-2----7/3-3-3-3--3/7-7-7-7-7--8--8--8--8---10-10-10--------| 
E|--0-0-0-0-0-0---------------------------------------------------------|
    . . . . . .


[Chorus]

e|---------------------------------------------------------------------------|
b|---------------------------------------------------------------------------|
G|--5------5--9-9-9-9-9---5------5--9----------------------------------------|
D|--5-7--5-5--9-9-9-9-9---5-7--5-5--9----------------------------------------|
A|--3-7--5-3--7-7-7-7-7---3-7--5-3--7----------------------------------------| x2
E|----5--3------------------5--3---------------------------------------------|


[Verse]

e|----------------------------------------------------------------------|
b|----------------------------------------------------------------------|
G|--9-9-9-9-9-9--9-5-5-5-5--5/9-9-9-9-9--10-10-10-10--12-12-12----------|
D|--9-9-9-9-9-9--9-5-5-5-5--5/9-9-9-9-9---------------------------------|
A|--7-7-7-7-7-7--7/3-3-3-3--3/7-7-7-7-7--8--8--8--8---10-10-10----------| 
E|----------------------------------------------------------------------|

e|----------------------------------------------------------------------|
b|----------------------------------------------------------------------|
G|-----------------9-5-5-5-5--5/9-9-9-9-9--10-10-10-10--12-12-12--------|
D|--2-2-2-2-2-2----9-5-5-5-5--5/9-9-9-9-9-------------------------------|
A|--2-2-2-2-2-2----7/3-3-3-3--3/7-7-7-7-7--8--8--8--8---10-10-10--------| 
E|--0-0-0-0-0-0---------------------------------------------------------|
    . . . . . .

[Chorus]

e|---------------------------------------------------------------------------|
b|---------------------------------------------------------------------------|
G|--5------5--9-9-9-9-9---5------5--9----------------------------------------|
D|--5-7--5-5--9-9-9-9-9---5-7--5-5--9----------------------------------------|
A|--3-7--5-3--7-7-7-7-7---3-7--5-3--7----------------------------------------|
E|----5--3------------------5--3---------------------------------------------|

e|--------------------------------------------------------------------------|
b|--------------------------------------------------------------------------|
G|--5------5--9-9-9-9-9---5------5------------------------------------------|
D|--5-7--5-5--9-9-9-9-9---5-7--5-5------------------------------------------|
A|--3-7--5-3--7-7-7-7-7---3-7--5-3------------------------------------------|
E|----5--3------------------5--3--------------------------------------------|


[Break]

e|------------------------------------------------------------------------------------------------|
b|------------------------------------------------------------------------------------------------|
G|--4-4-4-4-4-7-7-7-7-7-7-4-4-4-4-4-7-7-7-5-5-5-5-7-7-7-7-7-7-7-7-7-7-7-7-7-7-7-7-7-7-7-7-7-7-5-5-|
D|------------------------------------------------------------------------------------------------|
A|--2-2-2-2-2-5-5-5-5-5-5-2-2-2-2-2-5-5-5-3-3-3-3-5-5-5-5-5-5-5-5-5-5-5-5-5-5-5-5-5-5-5-5-5-5-3-3-| 
E|------------------------------------------------------------------------------------------------|

e|----------------------------------------------------------------------------------------------------------|
b|----------------------------------------------------------------------------------------------------------|
G|--4-4-4-4-4-7-7-7-7-7-7-4-4-4-4-4-7-7-7-5-5-5-5-7-7-7-7-7-7-7-7-7-7-7-11-11-11-11-11-11-11-11-11-11-11-11-|
D|----------------------------------------------------------------------------------------------------------|
A|--2-2-2-2-2-5-5-5-5-5-5-2-2-2-2-2-5-5-5-3-3-3-3-5-5-5-5-5-5-5-5-5-5-5-9--9--9--9--9--9--9--9--9--9--9--9--| 
E|----------------------------------------------------------------------------------------------------------|

[Bridge]

e|---------------------------------------------------------------------------|
b|---------------------------------------------------------------------------|
G|--5------5--9-9-9-9-9---5------5--9----------------------------------------|
D|--5-7--5-5--9-9-9-9-9---5-7--5-5--9----------------------------------------|
A|--3-7--5-3--7-7-7-7-7---3-7--5-3--7----------------------------------------|
E|----5--3------------------5--3---------------------------------------------|


[Verse]

e|----------------------------------------------------------------------|
b|----------------------------------------------------------------------|
G|--9-9-9-9-9-9--9-5-5-5-5--5/9-9-9-9-9--10-10-10-10--12-12-12----------|
D|--9-9-9-9-9-9--9-5-5-5-5--5/9-9-9-9-9---------------------------------|
A|--7-7-7-7-7-7--7/3-3-3-3--3/7-7-7-7-7--8--8--8--8---10-10-10----------| 
E|----------------------------------------------------------------------|

e|----------------------------------------------------------------------|
b|----------------------------------------------------------------------|
G|-----------------9-5-5-5-5--5/9-9-9-9-9--10-10-10-10--12-12-12--------|
D|--2-2-2-2-2-2----9-5-5-5-5--5/9-9-9-9-9-------------------------------|
A|--2-2-2-2-2-2----7/3-3-3-3--3/7-7-7-7-7--8--8--8--8---10-10-10--------| 
E|--0-0-0-0-0-0---------------------------------------------------------|
    . . . . . .


[Chorus]

e|---------------------------------------------------------------------------|
b|---------------------------------------------------------------------------|
G|--5------5--9-9-9-9-9---5------5--9----------------------------------------|
D|--5-7--5-5--9-9-9-9-9---5-7--5-5--9----------------------------------------|
A|--3-7--5-3--7-7-7-7-7---3-7--5-3--7----------------------------------------| 
E|----5--3------------------5--3---------------------------------------------|

e|---------------------------------------------------------------------------|
b|---------------------------------------------------------------------------|
G|--5------5--9-9-9-9-9---5------5-------------------------------------------|
D|--5-7--5-5--9-9-9-9-9---5-7--5-5-------------------------------------------|
A|--3-7--5-3--7-7-7-7-7---3-7--5-3-------------------------------------------| 
E|----5--3------------------5--3---------------------------------------------|
 

[Outro]

e|---------------------------------------------------------------------------|
b|---------------------------------------------------------------------------|
G|--9-----9-----9-----9--9-9-9-9---------------------------------------------|
D|--9-----9-----9-----9--9-9-9-9---------------------------------------------|
A|--7-2-2-7-2-2-7-2-2-7--7-7-7-7---------------------------------------------|
E|----0-0---0-0---0-0--------------------------------------------------------|
      . .   . .   . .


************************************

| /  Slide up
| ~  Vibrato

************************************
Suggest correction
Give kudos to tab author, rate the tab!
1 2 3 4 5
comments
print report bad tab
2 comments total.
+1 reply
heinen61 10 Jan 19, 2017 12:53 PM

Appreciate it!! Would love to see the whole LP on here!

guest
You may want to rate the tab now too:
select rating
Wanna post a correction for this tab? Suggest correction