Oops, an error
Loading. Please wait.

Too Deep Until Now Tab

4 views 1 this week
no commentswrite comment
1 2 3 4 5
3 more votes to show rating
add to favorites
launch autoscroll
font size
0
reset
how to read this tab
guitar tuner
Autoscroll
slow
fast
+/-
esc
set tempo
stop
Help us to improve Ultimate-Guitar.com Take our survey!
×
Author
Difficulty
intermediate
[Intro]
e|---------------------|    
b|---------------------|    
G|--9-5-7-----9-7-7-5--|     
D|--9-5-7-8---9-7-5-3--| x2 
A|--7-3-5-8---7-5------|    
E|--------6------------|    

e|-----------------------------------------------|
b|-----------------------------------------------|
G|9-9-9-9-9-9-9-9-9-9-9-9--12-12-12--12-12-12----|
D|9-9-9-9-9-9-9-9-9-9-9-9--12-12-12--12-12-12----|
A|7-7-7-7-7-7-7-7-7-7-7-7--10-10-10--10-10-10----|
E|-----------------------------------------------|

[Verse]
e|---------------------------------------------------------------------------|
b|---------------------------------------------------------------------------|
G|--9-9-9-9-9--5-5-5--7------------------------------------------------------|
D|--9-9-9-9-9--5-5-5--7-8----------------------------------------------------| x4
A|--7-7-7-7-7--3-3-3--5-8----------------------------------------------------|
E|----------------------6----------------------------------------------------|

[Chorus]
e|---------------------------------------------------------------------------|
b|---------------------------------------------------------------------------|
G|--10--------------12-12--9------------10--------------12-12--9--12-12-12---|
D|--10--------------12-12--9------------10--------------12-12--9--12-12-12---|
A|--8---------------10-10--7------------8---------------10-10--7--10-10-10---|
E|---------------------------------------------------------------------------|

[Verse]
e|---------------------------------------------------------------------------|
b|---------------------------------------------------------------------------|
G|--9-9-9-9-9--5-5-5--7------------------------------------------------------|
D|--9-9-9-9-9--5-5-5--7-8----------------------------------------------------| x4
A|--7-7-7-7-7--3-3-3--5-8----------------------------------------------------|
E|----------------------6----------------------------------------------------|

[Bridge]
e|-----------------------------------------|    
b|-----------------------------------------|   
G|------------------------------5-5-5-5-5--|    
D|--2-2-2-2-2-2-2-2--3-3-3-3-3--5-5-5-5-5--| x3 
A|--2-2-2-2-2-2-2-2--3-3-3-3-3--3-3-3-3-3--|    
E|--0-0-0-0-0-0-0-0--1-1-1-1-1-------------|    
    . . . . . . . .

e|----------------------------|
b|----------------------------|
G|-9-9-9-9-9-9-9-9-9-9-9-9-9--|
D|----------------------------|
A|-7-7-7-7-7-7-7-7-7-7-7-7-7--|
E|----------------------------|

[Chorus]
e|---------------------------------------------------------------------------|
b|---------------------------------------------------------------------------|
G|--10--------------12-12--9------------10--------------12-12--9--12-12-12---|
D|--10--------------12-12--9------------10--------------12-12--9--12-12-12---|
A|--8---------------10-10--7------------8---------------10-10--7--10-10-10---|
E|---------------------------------------------------------------------------|

[Second Bridge]
e|---------------------------------------------------------------------------|
b|---------------------------------------------------------------------------|
G|--9-9-9--7-7-7-------------------------------------------------------------|
D|----------------9-9-9------------------------------------------------------| x8
A|--7-7-7--5-5-5-------------------------------------------------------------|
E|----------------7-7-7------------------------------------------------------|
    . . .  . . .  . . .

[Break]
e|---------------------------------------------------------------------------|
b|---------------------------------------------------------------------------|
G|--9-9-9-9-----------5-5-5-5--5--4-5-7--------------------------------------|
D|--9-9-9-9--5-5-5-5--5-5-5-5--5--4-5-7--------------------------------------| x2
A|--7-7-7-7--5-5-5-5--3-3-3-3--3--2-3-5--------------------------------------|
E|-----------3-3-3-3---------------------------------------------------------|

[Solo Guitar]
e|---------------------------------------------------------------------------|
b|---------------12-----------------12--12-12-12-12-12-12-12-12--------------|
G|--11-9--9--12------11-9---9--12--------------------------------------------|
D|---------------9------------------9---9--9--9--9--9--9--9--9---------------|
A|--9--7--7--10------9--7---7--10--------------------------------------------|
E|---------------------------------------------------------------------------|

[Rhythm Guitar]
E|---------------------------------------|    -------------------------------|
B|---------------------------------------|    -------------------------------|
G|--9-9-9-9-----------5-5-5-5--5--4-5-7--|    --9-9-9-9-9--9--9--------------|
D|--9-9-9-9--5-5-5-5--5-5-5-5--5--4-5-7--|x2  --9-9-9-9-9--9--9--------------|
A|--7-7-7-7--5-5-5-5--3-3-3-3--3--2-3-5--|    --7-7-7-7-7--7--7--------------|
E|-----------3-3-3-3---------------------|    -------------------------------|

E|---------------------------------------------------------------------------|
B|---------------------------------------------------------------------------|
G|--9-5-7-----9-7-7-5----9-5-7-----9-7-7-5----9-9-9-9-9-9-9-9-9-9-9-9-9-9-9--|
D|--9-5-7-8---9-7-5-3----9-5-7-8---9-7-5-3----9-9-9-9-9-9-9-9-9-9-9-9-9-9-9--|
A|--7-3-5-8---7-5--------7-3-5-8---7-5--------7-7-7-7-7-7-7-7-7-7-7-7-7-7-7--|
E|--------6--------------------6---------------------------------------------|

[Outro]
e|---------------------------------------------------------------------------|
b|---------------------------------------------------------------------------|
G|--10--------------12-12--9------------10--------------12-12--9--12-12-12---|
D|--10--------------12-12--9------------10--------------12-12--9--12-12-12---|
A|--8---------------10-10--7------------8---------------10-10--7--10-10-10---|
E|---------------------------------------------------------------------------|

************************************

| .  Palm mute
| x  Dead note 

************************************
Suggest correction
Give kudos to tab author, rate the tab!
1 2 3 4 5
comments
print report bad tab
guest
You may want to rate the tab now too:
select rating
Wanna post a correction for this tab? Suggest correction