Oops, an error
Loading. Please wait.

Closer Tab

310 views 84 this week
no commentswrite comment
1 2 3 4 5
2 more votes to show rating
add to favorites
launch autoscroll
font size
0
reset
how to read this tab
guitar tuner
Autoscroll
slow
fast
+/-
esc
set tempo
stop
Help us to improve Ultimate-Guitar.com Take our survey!
×
Author
Difficulty
Capo
advanced
1st fret
About this tab version
This tab was originally made by Jorell M. Prospero and is very good however is not on this site it otherwise requires downloads or other methods to get it which can be quite frustrating for some so im uploading this popular song so that it can get some recognition and some praise all rights goes to Jorell M. Prospero and is performed by him in this link: https://www.youtube.com/watch?v=-W8N3ClCvw0 not may finger style tabs of this song are normally seen so it is good to finally have one. Was this info helpful? Yes No
all rights go to Jorell M. Prospero

[Verse]
e|------[0]---------------------------------------------------------------------|
B|---3--------3-3-3--3-0-0----------3--3--3-0-0---------0-0------[0]------------|
G|---0----------0----0-------2-2-0--0-----0-----2--2-0-------[0]----------------|
D|-------0---------------------0-------------------0--------------0--0----------| x2
A|---3------------------------------------3-------------------------------------|
E|-----x--------x----0-----x--------x-------------------x---0---x-------x--0----|

[Pre-Chorus]
e|------------------------------------------------------------------------------|
B|------------------------------------------------------------------------------|
G|---0-0--------0--0-0h2--2--0--0----0-------0--0--0h2s3s2--0-------------------|
D|---0-0------0----0------------2--2--------2---0-------------------------------|
A|------------------------------------------------------------------------------|
E|---8---x--8-------------x-----0------x--0------------x------------------------|

e|------------------------------------------------------------------------------|
B|------------------------------------------------------3-----------------------|
G|---0-0--------0--0-0h2--2--0--0---0--------0--0--2s4--4s2--0------------------|
D|---0-0------0----0------------2--2--------2---0-------------------------------|
A|------------------------------------------------------------------------------|
E|---8---x--8-------------x-----0------x--0-------------x-----------------------|

e|------------------------------------------------------------------------------|
B|---3-0------------------------------8-----------------------------------------|
G|---0----3-0---------------------------7---------------------------------------|
D|------------0--7s9--9s7---5----5--0-------------------------------------------|
A|---3--------5-----------------------------------------------------------------|
E|--------x--------x------0---x--0----------------------------------------------|

e|--------------------------------0---------------------------------------------|
B|---3-0--------------------------8---------------------------------------------|
G|---0----3-0---------------------7---------------------------------------------|
D|------------0--7s9--9s7---5-----0---------------------------------------------|
A|---3--------5-----------------------------------------------------------------|
E|--------x--------x------0---x-----x-------------------------------------------|

[Chorus]
e|------------------------------------------------------------------------------|
B|-------0------0-------0------------------------------0-0----------------------|
G|---2-2--0-2-2---0-2-2---0-2-2-0---0-2-2-0---0-2-2--0-----0-0--2-2-0---0-------|
D|------------0---------------0-------------------0---------------0-------------|
A|-----3--------------------------------3---------------------------------------|
E|--------------------0----------------------------------0----------------------|

e|------------------------------------------------------------------------------|
B|-------0------0-------0------------------------------0-0----------------------|
G|---2-2--0-2-2---0-2-2---0-2-2-0---0-2-2-0---0-2-2--0-----0-0--2-2-------------|
D|------------0---------------0-------------------0---------------0-------------|
A|-----3--------------------------------3---------------------------------------|
E|--------------------0----------------------------------0----------x-----------|

 [Instrumental] melody at base lang bale nilagay ko dito para hindi nakakalito.
e|---3-5-5-3--3-5-5-3--3-5s7--7--3-3-5-5-3--------------------------------------|
B|------------------------------------------------------------------------------|
G|------------------------------------------------------------------------------|
D|------------------------------------------------------------------------------|
A|-------3--------5--------------------5----------------------------------------|
E|----------------------------0-------------------------------------------------|

[Verse]
e|------[0]---------------------------------------------------------------------|
B|---3--------3-3-3--3-0-0----------3--3--3-0-0---------0-0------[0]------------|
G|---0----------0----0-------2-2-0--0-----0-----2--2-0-------[0]----------------|
D|-------0---------------------0-------------------0--------------0--0----------| x2
A|---3------------------------------------3-------------------------------------|
E|-----x--------x----0-----x--------x-------------------x---0---x-------x--0----|

[Pre-Chorus]
e|------------------------------------------------------------------------------|
B|---8-8-------8--8-8h10--10--8--8----8--8-8h10-10s11s10--8---------------------|
G|---7-7-----7----------------7-7----7------------------------------------------|
D|----------------0----------------------0--------------------------------------| x2
A|----------------------------7-----7-------------------------------------------|
E|---8---x-8-----------x----------x-------------x-------------------------------|

e|-------7-7--------------------------------------------------------------------|
B|---10----10--8------10s12s10-10---8----8---8--8-------------------------------|
G|---------------7-7----------------7----7---7----------------------------------|
D|---------------0-----------------------0-0------------------------------------|
A|------------------------------------------------------------------------------|
E|---8-----x----------x-----------0---x-----------------------------------------|

e|-------7-7-----------------------------0--------------------------------------|
B|---10----10--8------10s12s10-10---8----8--------------------------------------|
G|---------------7-7----------------7----7--------------------------------------|
D|---------------0-----------------------0--------------------------------------|
A|------------------------------------------------------------------------------|
E|---8-----x----------x-----------0---x-----x-----------------------------------|

[Chorus]
e|------------------------------------------------------------------------------|
B|-------0------0-------0------------------------------0-0----------------------|
G|---2-2--0-2-2---0-2-2---0-2-2-0---0-2-2-0---0-2-2--0-----0-0--2-2-0---0-------|
D|------------0---------------0-------------------0---------------0-------------|
A|-----3--------------------------------3---------------------------------------|
E|--------------------0----------------------------------0----------------------|

e|------------------------------------------------------------------------------|
B|-------0------0-------0------------------------------0-0----------------------|
G|---2-2--0-2-2---0-2-2---0-2-2-0---0-2-2-0---0-2-2--0-----0-0--2-2-------------|
D|------------0---------------0-------------------0---------------0-------------|
A|-----3--------------------------------3---------------------------------------|
E|--------------------0----------------------------------0----------x-----------|

[Outro]
e|---0---0---0--0h2--3-2-0----------7-------------------------------------------|
B|---3---5---0-------3-----3--3-0---8-------------------------------------------|
G|---0---0---0----------------2-----7-------------------------------------------|
D|---2---4---2----------------0-----9-------------------------------------------|
A|---3---5---2-------3--------------7-------------------------------------------|
E|-----------0----------------------0-------------------------------------------|

performance: https://www.youtube.com/watch?v=-W8N3ClCvw0

**********************************

x = TAP
h = HAMMER
s = SLIDE
[0] = HARMONICS Start at 12 fret

**********************************
Suggest correction
Give kudos to tab author, rate the tab!
1 2 3 4 5
comments
print report bad tab
guest
You may want to rate the tab now too:
select rating
Wanna post a correction for this tab? Suggest correction