Oops, an error
Loading. Please wait.

I Feel For You bass

version 1
version 1

Whole song

Interactive

19 views 1 this week
no commentswrite comment
1 2 3 4 5
2 more votes to show rating
add to favorites
×
Save as Personal and add changes to this tab that will be seen only by you. Learn more ›
×
You can save this tab as Personal to edit and correct it or add notes. All changes will be seen only by you. Learn more »
launch autoscroll
font size
0
reset
guitar tuner
edit
Autoscroll
slow
fast
+/-
esc
set tempo
stop
Artist: Chaka Khan
Song: I Feel For You
Tuning - Standard
tabbed by electricbunny

[Verse]                                                             
G|--------------------------------|--------------------------------|
D|--------------------------------|--------------------------------|
A|--------4---4-------------------|--------------------------------|
E|0---------------0-----------0---|--------------------2-2-2---0---|
 
G|--------------------------------|--------------------------------|
D|--------------------------------|--------------------------------|
A|--------------------------------|--------------------2-4---------|
E|2-------2---0---1---2-------0---|------------0---2-------2-0-2-4-|
 
G|--------------------------------|--------------------------------|
D|--------------------------------|--------------------------------|
A|--------4---4-------------------|--------------------------------|
E|2---------------0-----------2---|--------------------2-2-----0---|
 
G|--------------------------------|--------------------------------|
D|----------------1---2-----------|----------------0-------0-------|
A|--------1---1-------------------|--------------------------------|
E|2---------------------------2---|------------2-------------------|
 
G|--------------------------------|--------------------------------|
D|------------1-------------------|------------------------4---3---|
A|--------4-------------------2---|------------2---2---------------|
E|2---------------2---------------|--------------------------------|
 
G|--------------------------------|--------------------------------|
D|2-----------2---2---------------|----------------0-------0-------|
A|--------------------------------|--------------------------------|
E|----------------------------2---|------------2-------------------|
 
G|--------------------------------|--------------------------------|
D|--------------------------------|--------------------------------|
A|--------4---4---------------2---|----------------2-----2---------|
E|2---------------2---------------|------------2---------------2---|
 
G|--------------------------------|--------------------------------|
D|--------------------0-----------|----------------0-------0-------|
A|--------------------------------|--------------------------------|
E|0-----------0---0-----------2---|------------2-------------------|
 
G|--------------------------------|--------------------------------|
D|--------------------------------|--------------------------------|
A|--------------------------------|--------------------------------|
E|2-2---0-2---0---2-----------2---|------------2-------2---0-2-0---|
 
G|--------------------------------|--------------------------------|
D|--------------------------------|--------------------------------|
A|----------------2---------------|--------------------------------|
E|0-----------0---------------4---|------------4-------2-0-2-4-2-0-|
 
G|--------------------------------|--------------------------------|
D|--------------------------------|--------------------------------|
A|--------------------------------|--------------------------------|
E|------------0---2-----------2---|------------2-------2---0-2-0---|
 
G|--------------------------------|--------------------------------|
D|--------------------------------|--------------------------------|
A|--------------------------------|--------------------------------|
E|2-----------0---4---------------|--------------------------------|
 
[Chorus]                                                            
G|--------------------------------|--------------------------------|
D|--------------------------------|--------------------------------|
A|--------------------------------|--------------------------------|
E|2-----------0---2-----------2---|------------0---2-----0-2---0---|
 
G|--------------------------------|----------------------------4---|
D|--------------------------------|----2---------------------------|
A|--------------------------------|--------5-----------5---2-------|
E|0-----------0---------------0---|0-----------0---0---------------|
 
G|--------------------------------|--------------------------------|
D|--------------------------------|--------------------------------|
A|--------------------------------|--------------------------------|
E|2-----------0---2-----------2---|------------0---2-----0-2---0---|
 
G|--------------------------------|----------------------------4---|
D|--------------------------------|----2---------------------------|
A|--------------------------------|--------5-----------5---2-------|
E|0-----------0---------------0---|0-----------0---0---------------|
[Verse]                                                             
G|--------------------------------|--------------------------------|
D|--------------------------------|--------------------------------|
A|--------------------------------|--------------------------------|
E|--------------------------------|------------------------2---0---|
 
G|--------------------------------|--------------------------------|
D|--------------------------------|--------------------------------|
A|--------------------------------|--------------------2-4---------|
E|2-------2---0---1---2-------0---|------------0---2-------2-0-2-4-|
 
G|--------------------------------|--------------------------------|
D|--------------------------------|--------------------------------|
A|--------4---4-------------------|--------------------------------|
E|2---------------0-----------2---|--------------------2-2-----0---|
 
G|--------------------------------|--------------------------------|
D|----------------1---------------|--------------------------------|
A|--------1---1-------------------|--------------------------------|
E|2-------------------0-------2---|------------2---2-------2-------|
 
G|--------------------------------|--------------------------------|
D|------------1-------------------|------------------------4---3---|
A|--------4-------------------2---|------------2---2---------------|
E|2---------------2---------------|--------------------------------|
 
G|--------------------------------|--------------------------------|
D|2-----------2---2---------------|----------------0-------0-------|
A|--------------------------------|--------------------------------|
E|----------------------------2---|------------2-------------------|
 
G|--------------------------------|--------------------------------|
D|--------------------------------|--------------------------------|
A|--------4---4---------------2---|----------------2-----2---------|
E|2---------------2---------------|------------2---------------2---|
 
G|--------------------------------|--------------------------------|
D|--------------------0-----------|----------------0-------0-------|
A|--------------------------------|--------------------------------|
E|0-----------0---0-----------2---|------------2-------------------|
 
G|--------------------------------|--------------------------------|
D|--------------------------------|--------------------------------|
A|--------------------------------|--------------------------------|
E|2-2---0-2---0---2-----------2---|------------2-------2---0-2-0---|
 
G|--------------------------------|--------------------------------|
D|--------------------------------|--------------------------------|
A|----------------2---------------|--------------------------------|
E|0-----------0---------------4---|------------4-------2-0-2-4-2-0-|
 
G|--------------------------------|--------------------------------|
D|--------------------------------|--------------------------------|
A|--------------------------------|--------------------------------|
E|------------0---2-----------2---|------------2-------2---0-2-0---|
 
G|--------------------------------|--------------------------------|
D|--------------------------------|--------------------------------|
A|--------------------------------|--------------------------------|
E|2-----------0---4---------------|--------------------------------|

[Chorus]                                                            
G|--------------------------------|--------------------------------|
D|--------------------------------|--------------------------------|
A|--------------------------------|--------------------------------|
E|2-----------0---2-----------2---|------------0---2-----0-2---0---|
 
G|--------------------------------|------------8-------6-----------|
D|--------------------------------|--------------------------------|
A|--------------------------------|----7-------5---6---------------|
E|0-----------0---------------0---|0-----0-0---------------9-------|
 
G|--------------------------------|--------------------------------|
D|--------------------------------|--------------------------------|
A|--------------------------------|--------------------------------|
E|2-----------0---2-----------2---|------------0---2-----0-2---0---|
 
G|--------------------------------|----------------------------4---|
D|--------------------------------|----2---------------------------|
A|--------------------------------|--------5-----------5---2-------|
E|0-----------0---------------0---|0-----------0---0---------------|
 
G|--------------------------------|--------------------------------|
D|--------------------------------|--------------------------------|
A|--------------------------------|--------------------------------|
E|--------2-----------------------|--------------------------------|

                                   [Solo]                           
G|--------------------------------|--------------------------------|
D|--------------------------------|--------------------------------|
A|--------------------------------|--------------------------------|
E|--------------------------------|0-----------0---2-----------2---|
 
G|--------------------------------|--------------------------------|
D|--------------------------------|--------------------------------|
A|--------------------------------|--------------------------------|
E|------------0---2-----0-2---1---|0-----------2---0-----------0---|
 
G|--------------------------------|--------------------------------|
D|--------------------------------|--------------------------------|
A|--------------------------------|--------------------------------|
E|------------2---0---2-----------|2-----------0---2-----------2---|
 
G|--------------------------------|--------------------------------|
D|--------------------------------|--------------------------------|
A|--------------------------------|--------------------------------|
E|------------0---2-----0-2---0---|0-----------2---0-----------0---|
 
G|----6---------------------------|--------------------------------|
D|--------------------------------|--------------------------------|
A|4-------------------7-----------|--------------------------------|
E|--------0---0---0-------0-------|0-------------------------------|
 
G|--------------------------------|--------------------------------|
D|--------------------------------|--------------------------------|
A|--------------------------------|--------------------------------| (x3)
E|--------------------------------|0-------------------------------|

G|--------------------------------|--------------------------------|
D|--------------------------------|--------------------------------|
A|--------------------------------|--------------------------------| (x5)
E|--------------------------------|--------------------------------|

                                  [Outro]                           
G|--------------------------------|--------------------------------|
D|--------------------------------|--------------------------------|
A|--------------------------------|--------------------------------|
E|--------------------------------|2-------0---0---2-----------2---|
 
G|--------------------------------|--------------------------------|
D|--------------------------------|------0---1---------------------|
A|--------------------------------|----------------------------0---|
E|------------0---2---------------|3---------------2---------------|
 
G|--------------------------------|--------------------------------|
D|--------------------------------|--------------------------------|
A|----------------2-------4-------|--------------------------------|
E|------------5-------------------|2-------0---0---2-----------2---|
 
G|--------------------------------|--------------------------------|
D|--------------------------------|------------1---2-----------4---|
A|--------------------------------|--------5-----------------------|
E|------------0---2---------------|3-------------------------------|
 
G|--------------------------------|--------------------------------|
D|--------------------------------|--------------------------------|
A|--------------------------------|--------------------------------|
E|------------0---2---------------|0-------------------------------|
 
G|--------------------------------|--------------------------------|
D|--------------------------------|--------------------------------|
A|--------------------------------|--------------------------------|
E|--------------------------------|0-------------------------------|
 
G|--------------------------------|--------------------------------|
D|--------------------------------|--------------------------------|
A|--------------------------------|--------------------------------|
E|--------------------------------|2-----------0---2-----------2---|
 
G|--------------------------------|--------------------------------|
D|--------------------------------|--------------------------------|
A|--------------------------------|--------------------------------|
E|--------------------------------|0-----------0---0-----------0---|

            
            
Suggest correction
Creating personal tab
Creating personal tab
You can edit any tab online and save it as your Personal.

You can edit, replace or remove any tab part or add personal notes – all changes will be seen only by you.

Personal tabs can be accessed anytime from any device, even offline.
Learn more »
Give kudos to tab author, rate the tab!
1 2 3 4 5
comments
print report bad tab
guest
You may want to rate the tab now too:
select rating
Wanna post a correction for this tab? Suggest correction