Oops, an error
Loading. Please wait.

Tell Me Somthing Good Bass Tab

18,279 views 39 this week
3 commentsread comments
1 2 3 4 5
x 3
add to favorites
launch autoscroll
font size
0
reset
guitar tuner
Autoscroll
slow
fast
+/-
esc
set tempo
stop
Help us to improve Ultimate-Guitar.com Take our survey!
×
Author
Difficulty
Chaka Khan
“Tell Me Something Good”
Pretty easy when you figure out the rythem and tempo.
Tune EADG

[Intro]
G|----------------------------------------------------13/11------------------|
D|---------------------------------44---------------------------13-11--------|
A|-----------6--4--2--1------------------------------------------------13/0--|
E|-4--2--1---------------4--2--2----2----------------------------------------|

[Verse]
G|-------------------------------------------------------------|( x3)
D|-6--4--3---------------------44--4/6--44--4/6--44--4/6--44---|
A|----------6--4--2--1-----------------------------------------|
E|----------------------4--2--2---2----2---2----2---2----2---2-|

[Pre-Chorus]
G|-----------------------------|
D|-----------------------------|
A|-1--2--4--5--6--2--3--4--6---|
E|-----------------------------|

[Chorus]
    Tell…me…some-thing....good
G|--------------------------------------------|
D|-----------------------3--------------------|
A|---------3----6-----------------------45656-|
E|-4----4--------------------------6--68------|

G|--------------------------------------------|
D|-----------------------3--------------------|
A|---------3----6-----------------------45656-|
E|-4----4--------------------------6--68------|(x2)

[Verse]
G|-------------------------------------------------------------|( x3)
D|-6--4--3---------------------44--4/6--44--4/6--44--4/6--44---|
A|----------6--4--2--1-----------------------------------------|
E|----------------------4--2--2---2----2---2----2---2----2---2-|

[Pre-Chorus]
G|-----------------------------|
D|-----------------------------|
A|-1--2--4--5--6--2--3--4--6---|
E|-----------------------------|

[Chorus]
    Tell…me…some-thing....good
G|--------------------------------------------|
D|-----------------------3--------------------|
A|---------3----6-----------------------45656-|
E|-4----4--------------------------6--68------|

G|--------------------------------------------|
D|-----------------------3--------------------|
A|---------3----6-----------------------45656-|
E|-4----4--------------------------6--68------|(till the end)
Suggest correction
Give kudos to tab author, rate the tab!
1 2 3 4 5
comments
print report bad tab
3 comments total.
+2 reply
cornflakes93 180 Sep 26, 2012 02:44 PM

Excellent tab! Although i think you misprinted the prechorus, it should be this:

Pre-Chorus
I----------------------------------|
I----------------2---3--4---6------|
I-1--2--4--5--6--------------------|
I----------------------------------|

0 reply
ivanjoness 60 May 22, 2016 03:16 PM

yes! thats it.

0 reply
Court-Dawg 10 Mar 13, 2014 05:28 PM

Great Tab, And love this song!!!!

guest
You may want to rate the tab now too:
select rating
Wanna post a correction for this tab? Suggest correction