Oops, an error
Loading. Please wait.

Tan Bien tab

18 views 3 this week
no commentswrite comment
1 2 3 4 5
3 more votes to show rating
add to favorites
×
Save as Personal and add changes to this tab that will be seen only by you. Learn more ›
×
You can save this tab as Personal to edit and correct it or add notes. All changes will be seen only by you. Learn more »
launch autoscroll
font size
0
reset
how to read this tab
guitar tuner
edit
Autoscroll
slow
fast
+/-
esc
set tempo
stop
Todos los acordes son tocados como powerchord

 A      F#     B     E    C#
E----.------.-----.-----.------
B----.------.-----.-----.------
G----.------.-----.-----.------
D----.------.-----.--9--.--6---
A--7-.---4--.--9--.--7--.--4---
E--5-.---2--.--7--.-----.------


A      F#

No me interesa,
no me importa,
no me interesa,
no me importa,


B      E        C#            F#
Que no puedas encontrarme,

B      E        C#       F#
y te vayas por ahi,

B      E
quiero preguntarte
C#                F#
como se vive sin la otra parte,
      B
y vos tan bien!

A                  F#
Algo empieza a molestarme
algo empieza a molestarme,

B      E          C#        F#
Es que nada es importante,
B      E           C#       F#
nada te hace sufrir,
B       E
Siempre se hace tarde
C#               F#        B
y otra mañana sin abrazarte,
                A
y vos tan bien!

E-------------------------------------
B-------------------------------------
G------------------9~-----------------
D----7--9/11-9~-7~--------------------
A--/9---------------------------------
E-------------------------------------

E---------------------------------------
B---------------------------------------
G---------------------------------------
D----7--9/11-9~-7~----------------------
A--/9--------------9~-------------------
E---------------------------------------

E----------------------------------------
B--------------------------- ------------
G------------------9-7-9-/11~-11-9-11~~--
D----7--9/11-9~-7~-----------------------
A--/9------------------------------------
E----------------------------------------

A              F#
No, no me imteresa,
no, no me importa,(bis)

B       E          C#      F#
Que no puedas encontrarme,
B        E         C#       F#
y te vayas por ahi,
B        E         C#       F#
y que siempre se haga tarde,
B               E             C#        F#
y vos y vos, y vos y vos tan bien!
       A      F#   A          F#  A         F#
y vos tan bien, y vos tan bien, y vos tan bien!!


ESPERO SEA DE AYUDA CUALQUIER ERROR HAGANMELO SABER jesusnwo@
SALUDOS DE TAMPICO .. CHALA <3

            
            
Suggest correction
Creating personal tab
Creating personal tab
You can edit any tab online and save it as your Personal.

You can edit, replace or remove any tab part or add personal notes – all changes will be seen only by you.

Personal tabs can be accessed anytime from any device, even offline.
Learn more »
Give kudos to tab author, rate the tab!
1 2 3 4 5
comments
print report bad tab
guest
Wanna post a correction for this tab? Suggest correction