Oops, an error
Loading. Please wait.

Vivir chords

7 views 1 this week
no commentswrite comment
1 2 3 4 5
3 more votes to show rating
add to favorites
×
Save as Personal and add changes to this tab that will be seen only by you. Learn more ›
×
You can save this tab as Personal to edit and correct it or add notes. All changes will be seen only by you. Learn more »
launch autoscroll
font size
0
reset
transpose
0
reset
simplify chords
display chords
guitar tuner
edit
Autoscroll
slow
fast
+/-
esc
set tempo
stop
Strumming
There is no strumming pattern for this song yet. and get +5 IQ
Intro: E (x2)
-------------------------------------------------------
-------------------------------------------------------
---------1----1h2--1---1---------1----1h2----
-------2-----2---------2---------2-----2----------
-----2--------------------------2-------------------
---0--------------------------0--------------------

 riff E
de lo que nos queda,
prefiero estar afuera... que adentro,
pero mientras pueda,
escuchar en silencio... el viento,

B       A                                 E
y.... vivir.... de lo que nos queda...

(igual)
de lo que nos queda,
del mundo que inventamos... riendo,
quiero que vos puedas,
quedarte con lo poco... que tengo,

y.... vivir.... de lo que nos queda...

A
y sin saber del todo bien,
E                                E7
adonde ya no se donde pisé,
pero saber decir,
q es eso de ser libre...
          E            B     A    E
para quien es quien? no se...

E
de lo que nos queda,
me guardare el silencio... del tiempo,
pero mientras pueda,
no quiero resignarme... a verlo

y.... vivir.... de lo que nos queda...

y sin saber del todo bien,
adonde ya no se donde pisé,
pero saber decir,
q es eso de ser libre...
para quien es quien? no se...

E7                                E
de lo que nos queda (y ya verás)
de lo que nos queda (que todo cambiará)


riff E
|---------0-------0-------------------0-------0------------|
|---------0-------0-------------------0-------0------------|
|---------1-------1-------------------1-------1------------|
|-------------2----------------------------2-----------------|
|----------------------0h2------------------------0h2----|
|----0----------------------------0--------------------------|


Bueno, como siempre, escuchenla para ver los tiempos,
cualquier ajuste, aporte, critica o preguntas:
pabloasis17@ chauuu

            
            
Suggest correction
Creating personal tab
Creating personal tab
You can edit any tab online and save it as your Personal.

You can edit, replace or remove any tab part or add personal notes – all changes will be seen only by you.

Personal tabs can be accessed anytime from any device, even offline.
Learn more »
Give kudos to tab author, rate the tab!
1 2 3 4 5
comments
print report bad tab
guest
Wanna post a correction for this tab? Suggest correction