Oops, an error
Loading. Please wait.

Postal De Almas tab

17 views 1 this week
no commentswrite comment
1 2 3 4 5
3 more votes to show rating
add to favorites
×
Save as Personal and add changes to this tab that will be seen only by you. Learn more ›
×
You can save this tab as Personal to edit and correct it or add notes. All changes will be seen only by you. Learn more »
launch autoscroll
font size
0
reset
how to read this tab
guitar tuner
edit
Autoscroll
slow
fast
+/-
esc
set tempo
stop
INTRO:

E|--------------------------------|----------------------------------|
B|----------------------2-1-------|----------------------------------|
G|--------1-3-1----1/3------------|-------1-3-1----1/3-1-------------|
D|------3-------3-----------------|-----3-------3--------3-1-3-------|
A|----3---------------------------|---3------------------------------|
E|--------------------------------|----------------------------------|
                                             SIbm        DOm
E|--------------------------------|----------------------------------|
B|----------------------4-2-1-----|----------------------------------|
G|--------1-3-1----1/3------------|----------------------------------|
D|------3-------3-----------------|-----3----------------------------|
A|----3---------------------------|---3------------------------------|
E|--------------------------------|----------------------------------|


RIFF 1:

E|--------------------------------|
B|--------------------------------|
G|----------1-0-------------------|
D|----3-3--------3-1-3------------| x2
A|--------------------------------|
E|--------------------------------|


    Fm          SIbm              Fm   [RIFF 1]
Todo sucede debajo de un nido de tejas,
    SIbm             DOm          Fm
la tibia mañana le agrega sabor al lugar.
    Fm          SIbm              Fm   [RIFF 1]
El tiempo pasa inadvertido, como intrascendente.
    SIbm             DOm          Fm
Presente, detente un momento, dejá de ocurrir.

    Fm          SIbm              Fm   [RIFF 1]
Infancia riesgosa, camino surcado por grietas,
    SIbm             DOm          Fm
que quietas quedan en el alma como cicatriz.
    Fm          SIbm              Fm   [RIFF 1]
Paisaje de imágenes tenues y olores fuertes,
    SIbm             DOm          Fm
de feria, de cuero, de tiza, de leche y maíz.

    SOL#               LA#m    DOm   Fm
Postal de almas abandonadas, durando.
    SOL#               LA#m    DOm   Fm
Postal de almas abandonadas, durando, durando.

    Fm          SIbm              Fm   [RIFF 1]
Todo cambia abruptamente si llega la noche,
    SIbm             DOm          Fm
esa que no arrastra estrellas sino oscuridad.
    Fm          SIbm              Fm   [RIFF 1]
Ya no hay mañanas que entibien y ellos sólo tiemblan.
    SIbm             DOm          Fm
Hay hielo que sólo la muerte puede contagiar.

    SOL#               LA#m    DOm   Fm
Postal de almas abandonadas, durando.
    SOL#               LA#m    DOm   Fm
Postal de almas abandonadas, durando, durando.

    DOm                Fm        DOm               Fm
Y sigues culpando a tu suerte si la maldita se te fue,
    SIbm               Fm        SIbm              DOm
dejando las manos vacías, quedando el nido sin calor.
    Fm          SIbm          Fm       SIbm
   ohhh         ohhh            Quedando el nido sin calor.

    Fm          SIbm              Fm    [RIFF 1]
Todo sucedió debajo de un nido de tejas,
    SIbm             DOm          Fm
instantes quedan en el alma como cicatriz.
    Fm          SIbm              Fm    [RIFF 1]
Me veo leyendo las marcas del aura tajeada,
    SIbm             DOm          Fm
descubro soy la propia herida queriendo parir


    SOL#               LA#m    DOm   Fm
Postal de almas abandonadas, durando.
    SOL#               LA#m    DOm   Fm
Postal de almas abandonadas, durando, durando.

            
            
Suggest correction
Creating personal tab
Creating personal tab
You can edit any tab online and save it as your Personal.

You can edit, replace or remove any tab part or add personal notes – all changes will be seen only by you.

Personal tabs can be accessed anytime from any device, even offline.
Learn more »
Give kudos to tab author, rate the tab!
1 2 3 4 5
comments
print report bad tab
guest
Wanna post a correction for this tab? Suggest correction