Oops, an error
Loading. Please wait.

Tequila Tab

version 2
version 2

Whole song

Interactive

64,847 views 141 this week
2 commentsread comments
1 2 3 4 5
accurate
x 4
add to favorites
launch autoscroll
font size
0
reset
how to read this tab
guitar tuner
Tab Pro tools
  • play this tab
  • loop segment
  • change instrument
  • show fretboard
  • metronome
×
Best way to learn
"Tequila"
Autoscroll
slow
fast
+/-
esc
set tempo
stop
Contributor
Difficulty
novice
-------------------------------------------------------------------------------
                             Tequila by The Champs
-------------------------------------------------------------------------------
Tabbed by: Andres (silvadolla)
Email: andres.ali@gmail.com

This is played in Standard Tuning EADGBE.


Guitar I. (This is played throught the song)

e|--5--5--3------|
B|o-6--6--4----o-|
G|--5--5--3------|
D|---------------| x2
A|o------------o-|
E|---------------|
    d  d  d


e|--3--3--3--3----|
B|--4--4--4--4----|
G|--3--3--3--3----| Play this then start at guitar 1 again
D|----------------|
A|----------------|
E|----------------|
    u  d  u  d


This is what the horn plays

Main part:

E|--------------------------------------------| x4
B|o-----------------------------------------o-|
G|--------------------------------------------|
D|--------------------------------------------|
A|o--3--8--8p6--10--6-8-3-3-8-8p6--10--6-8--o-|
E|--------------------------------------------|

ClimaX:

e|-----------------------------------------------------|
B|-----------------------------------------------------|
G|-----------------------------------------------------|
D|-----------------------------------------------------|
A|-6-8--11--8--6-8--11--8--6-8--11--8-10-10-10-10-10-3-|
E|-----------------------------------------------------|

The horn has a solo at the end, still figuring out how to transcribe that.
This song is pretty easy to play. Listen to the song for the rhythm. You don't have to 
pulloffs for the slurs, slides sound pretty good here too.
Email me if you see any mistakes or want to offer suggestions
comments
print report bad tab
2 comments total.
+1 reply
Wolf Pack wrote on February 28 2014, 01:40 pm

The only thing I think that needs changing is the fact it's all on one string...

0 reply
Joald wrote on June 20 2014, 05:39 am

horn made easier to play. also missing notes in second part

E|-------------------------------------------| x4
B|o----------------------------------------o-|
G|-------------------------------------------|
D|-------------5-----------------------------|
A|o-----8--8p6-----6-8-----8-8p6--10--6-8--o-|
E|---8-----------------8-8-------------------|

ClimaX:

e|-------------------------------------------------------|
B|-------------------------------------------------------|
G|-------------------------------------------------------|
D|-------6~-----------6~------------6~------5-5-5-5-5-5--|
A|--6-8-----8\----6-8----8\-----6-8----8\----------------|
E|8------------8-------------8--------------------------8|

I want to post or [tab]
guest
You may want to rate the tab now too:
select rating
Please do not post tabs as comments. Select "correction" instead!