Oops, an error
Loading. Please wait.

Same Drugs Tab

586 views 84 this week
no commentswrite comment
1 2 3 4 5
2 more votes to show rating
add to favorites
launch autoscroll
font size
0
reset
how to read this tab
guitar tuner
Autoscroll
slow
fast
+/-
esc
set tempo
stop
Help us to improve Ultimate-Guitar.com Take our survey!
×
Author
Difficulty
novice
About this tab version
It only doesn't cover the bridge because Chance sings more A Capella with less instrumental than the rest of the song. Was this info helpful? Yes No
180 bpm

[Whole song]
  1    &    2    &    3    &    4    &    1    &    2    &    3    &    4    &
e|----------x-------------------x-------------------x-------------------x---------|
B|----------x----4--------------x-------------------x----4--------------x---------|
G|----------x----4--------------x-------------------x----4--------------x---------| 
D|----------x----4--------------x-------------------x----4--------------x---------|
A|4---------x-------------------x---------4---------x-------------------x---------|
E|----------x-------------------x-------------------x-------------------x---------|


e|----------x-------------------x---------6---------4--------4--------------------|
B|----------x----4--------------x---------7---------6--------6-----4--------------|
G|----------x----4--------------x---------8---------6--------6-----4--------------|
D|----------x----4--------------x---------8---------6--------6-----4--------------|
A|4---------x-------------------x---------6---------4--------4--------------------|
E|----------x-------------------x-------------------------------------------------| 

************************************

| x   Dead note

************************************
Suggest correction
Give kudos to tab author, rate the tab!
1 2 3 4 5
comments
print report bad tab
guest
You may want to rate the tab now too:
select rating
Wanna post a correction for this tab? Suggest correction