Oops, an error
Loading. Please wait.

Almacen bass

139 views 3 this week
1 commentread comment
1 2 3 4 5
3 more votes to show rating
add to favorites
×
Save as Personal and add changes to this tab that will be seen only by you. Learn more ›
×
You can save this tab as Personal to edit and correct it or add notes. All changes will be seen only by you. Learn more »
launch autoscroll
font size
0
reset
guitar tuner
edit
Autoscroll
slow
fast
+/-
esc
set tempo
stop
Intro y wuea

A)
G||------------------------||
D||------------------------||
A||----------3------7-5-3--||
E||--5-5-0-3---5-5---------||

no me se el verso y wuea pero es alo asi
B)
G||-----------------------||
D||-----------------------||
A||------3---------3------||
E||--5-5---0-0-5-5---5-3--||

C)
G||-----------------------||
D||-----------------------||
A||------5---------5------||
E||--7-7---2-2-7-7---7-5--||

despues lo mismo pero desde e espacio 12
D)
G||----------------||
D||----------------||
A||--------10------||
E||--12-12----7-7--|| etc...

coro y los akes y wuea
E)
G||------------------------||
D||------------------------||
A||------------------------||
E||--12-12-10-10-7-7-10-7--||

F)
G||-------------------||
D||-------------------||
A||-------------------||
E||--8-8-6-6-3-3-6-3--||

G)
E||-8-8-8-8-8-8-8-8-8--||

Orden
A) x 2
B)X1 C)X1 D) X1 B)X2 C)X1 D)X1
E)X2 F) X2 G)1
CREO Q ASI QEDA MAS CLAO
ADIOZ

            
            
Suggest correction
Creating personal tab
Creating personal tab
You can edit any tab online and save it as your Personal.

You can edit, replace or remove any tab part or add personal notes – all changes will be seen only by you.

Personal tabs can be accessed anytime from any device, even offline.
Learn more »
Give kudos to tab author, rate the tab!
1 2 3 4 5
comments
print report bad tab
1 comment total.
0 reply
cammilo10 10 Feb 04, 2015 06:30 AM

La tablatura mal hecha loco, no se trata de garabatear todo el rato y subirla a medias

guest
Wanna post a correction for this tab? Suggest correction