Oops, an error
Loading. Please wait.

Aquarius/let The Sunshine bass

97 views 1 this week
no commentswrite comment
1 2 3 4 5
3 more votes to show rating
add to favorites
×
Save as Personal and add changes to this tab that will be seen only by you. Learn more ›
×
You can save this tab as Personal to edit and correct it or add notes. All changes will be seen only by you. Learn more »
launch autoscroll
font size
0
reset
guitar tuner
edit
Autoscroll
slow
fast
+/-
esc
set tempo
stop
La  base de la tablatura se la tome 'prestada' a una hecha por Christopher Funicelli 
pero la modifique para que se adaptara a la version de los Chancho en Piedra.
Esta cancion es original del grupo '5th Dimension,' y para las raras tocatas nuevas 
de la Rock & pop los Chanchos le hacen un cover.


(El intro/verso se repite a cada rato durante el verso, 
escucha el tema para saber cuando tocar la variacion)

Intro/Verso:       	Variacion:
  
'Veo la luz...'		'Amor guia espiritual'
   C           		Eb        F         Bb
G:-----------|		|-------------------------------------------------
D:-------5---|		|-1--11-----3---33--------------------------------
A:-3---33----|		|-------1----------3--1---------------------------
E:-----------|		|-------------------------------------------------


(el coro lo puedes tocar en una onda mas punk sin hacer las cuartas, 
las cosa es que tienes que quedarte en 
las notas principales que estan escritas arriba)

Coro:
'Es el comienzo de la era de acuario...'
  Ab           C         F         C
G:-----------|---------|---------|--------------------5------5--
D:-6---66----|---------|-3--33---|-------------------5-5----5-5-
A:--------6--|-3--33---|-------3-|--3-33---3-33----3------3-----
E:-----------|-------3-|---------|-------3------3---------------


(el verso 2 lo puedes improvisar y darle una onda mas funk)

Verso 2
'Armonia entretimiento...' 
  Bb        Eb          Repite 3 veces
G:--------------------|----------------------------------------
D:-8---8----------5---|----------------------------------------
A:----8--8--6-/8----6-|----------------------------------------
E:--------------------|----------------------------------------
 

'Ni injustos egoismos...'
  C        D      Eb  Eb  Eb     D      C       C      F    G
G:-------------------------------------------------------------
D:-----------------------------------------------------3----5--
A:-3-----3-5----5-6---6---6------5------3-------3--------------
E:-------------------------------------------------------------


'Acuario...'
   F          C
G:---------|----------------------5-------5---------------------
D:-3--33---|---------------------5-5-----5-5--------------------
A:------3--|--3--33---3--33----3-------3------------------------
E:---------|-------3-------3------------------------------------


(En esta parte improvisa harto, aca tienes las bases. Durante las partes 
donde cantan 'Esperando y respirando,' quedate en las notas principales. 

Outro
'Let the sunshine...'
   B              F#             F#              B
G:-------------------------------------------------------------
D:-9---99--7h8h9----------------------------------9---99--7h8h9
A:---9---9--------9---99---7h8h9--9---99---7h8h9----9---9------
E:------------------9----9----------9----9---------------------

   G                  D
G:-------------------------------------------------------------
D:-----------------------------------7h8-----------------------
A:-10-10----10-10-9--------------------------------------------
E:-------10-----------10-10-10-10-10---------------------------


  B              F#             F#              B
G:--------------------/11-11-----------------------------------
D:-9---99--7h8h9-------------9--------------------9-9-99--7h8h9
A:---9---9--------9-9-------------9-9-99---7h8h9--------9------
E:---------------------------------------9---------------------

   G                  D
G:-------------------------------------------------------------
D:-----------------------------------------10h12---------------
A:-10-10----10-10-9------------------10h12---------------------
E:-------10-----------10-10-10-10-10---------------------------


Letra:

Veo la luz de la luna brillar
y jupiter alinea marte 
la paz sobre la tierra
amor guia espiritual

Es el comienzo de la era de acuario
era de acuario 
acuario
acuario

Armonia *entretimiento 
simpatia en todos lados
no mas falsos compromisos
ni injustos egoismos
Mi conciencia renovada
y la mente liberada

Acuario
acuario

Veo la luz de la luna brillar
y jupiter alinea marte 
la paz sobre el planeta
amor guia espiritual

Es el comienzo de la era de acuario
era de acuario
acuario
acuario
acuario
acuario

Esperando y respirando entre nubes
voy caminando con orgullo
entre olores desgastados de muerte facil
con sueños de color papel
venciendo a la cruel verdad
con vision suprema de musica

(6 veces)
Let the sunshine
let the sunshine in	
The sunshine in


*(no cacho la huea que dice ahi)

Disfruten!
Suggest correction
Creating personal tab
Creating personal tab
You can edit any tab online and save it as your Personal.

You can edit, replace or remove any tab part or add personal notes – all changes will be seen only by you.

Personal tabs can be accessed anytime from any device, even offline.
Learn more »
Give kudos to tab author, rate the tab!
1 2 3 4 5
comments
print report bad tab
guest
Wanna post a correction for this tab? Suggest correction