Oops, an error
Loading. Please wait.

Baldor bass

43 views 1 this week
no commentswrite comment
1 2 3 4 5
3 more votes to show rating
add to favorites
×
Save as Personal and add changes to this tab that will be seen only by you. Learn more ›
×
You can save this tab as Personal to edit and correct it or add notes. All changes will be seen only by you. Learn more »
launch autoscroll
font size
0
reset
guitar tuner
edit
Autoscroll
slow
fast
+/-
esc
set tempo
stop
Por: Jµªn§µðª|

En laz partez que canta no ze zi zuena igual
Pero de que zuena, zuena

Intro: (guitarra zola)

G-----------------------------
D-----------------------------
A-----------------------------
E--2-2-2-2--2-2-2-2--2-2------

G----------------------------------------------------------
D----------------------------------------------------------
A--5-3-2-3-2-0-2-0---0-2-0---0-2---------------------------
E------------------3-------3-------2-2-2-2-?2-2-2-2-?2-2---

G----------------------------------------------------
D----------------------------------------------------
A----0-2-0-2-3-5-3-2-3-2-0---------------------------
E--3-------------------------2-2-2-2--2-2-2-2--2-2---

G------------------------------------------------------------------
D------------------------------------------------------------------
A--5-3-2-3-2-0-2-0---0-2-0---0-2-----------------------------------
E------------------3-------3-------2-2-2-2-?2-2-2-2-?2-2---2-3-5~--

Estrofa1:

G------------------------------------------------------
D--------7----7----------5----5------------------------
A----5h7----7---7----3h5----5---5----------------------
E--5---------------3---------------2-2?-2-2-2?-2-3-3---

G---------------------------------4------------------------
D--------7----7----------5----5-7---7-5--------------------
A----5h7----7---7----3h5----5------------------------------
E--5---------------3---------------------2-2-2-2-2?2-2-2---

Coro:

G--------------------------------------------------
D--------------------------------------------------
A----0-2-0-2-3-2-0-2-0-----------------------------
E--3-------------------3---2-2-2-2--2-2-2-2--2-2---

G----------------------------------------------------------
D----------------------------------------------------------
A--5-3-2-3-2-0-2-0---0-2-0---0-2---------------------------
E------------------3-------3-------2-2-2-2-?2-2-2-2-?2-2---

G----------------------------------------------------
D----------------------------------------------------
A----0-2-0-2-3-5-3-2-3-2-0---------------------------
E--3-------------------------2-2-2-2--2-2-2-2--2-2---

G------------------------------------------------------------------
D------------------------------------------------------------------
A--5-3-2-3-2-0-2-0---0-2-0---0-2-----------------------------------
E------------------3-------3-------2-2-2-2-?2-2-2-2-?2-2---2-3-5~--

Estrofa2: (ze repite lo mismo que eztrofa1)
Coro: (ze repite)
Interludio: (empieza la guitarra y dezpuéz ze mete el bajo)

G-------(los ultimos computos...)--------------------------------
D------------------------------------------10---9----10---9------
A--4~---7-7-7--7-10p7-7---7-7-7?-7-10p7-7-----9---10----9---10---
E----------------------------------------------------------------

G----------------------------------------------------------------------
D----------------------------------------------------------------------
A--4-4-4-?4-7p4-4-?4-4-4-?4-7p4-4--4-4-4-?4-7p4-4-?4-4-4-?4-7p4-4------
E----------------------------------------------------------------------

G-----------------------------------------------------------
D-------------------------------------10---9----10---9------
A--7-7-7--7-10p7-7---7-7-7?-7-10p7-7-----9---10----9---10---
E-----------------------------------------------------------

G---------------------------------------------------------------
D---------------------------------------------------------------
A--4-5-7-7?-5h7--4-5-7-7?-5h7--4-5-7-8?7-8-10-8-7-8-7-5-7-5-4---
E---------------------------------------------------------------

G----------------------------------------------------
D----------------------------------------------------
A----------------------------------3---2---3---2-----
E--0-0-0--0-3p0-0--0-0-0--0-3p0-0----2---3---2---3---
(laz ultimaz 2 partez ze repiten hazta que termina el interludio)

(para volver)
G------------------------------------------------
D------------------------------------------------
A------------------------------------------------
E--5-5-5--5-5-7-9-7-5---3?-3--3--2-2-2-2---------

Y dezpuez ze toca el coro repitiendo la ultima parte
Hazta que termine el tema
Alguna duda o reclamo no me la manden
Por que no loz voy a pezcar J
Me ofrezco como bajizta para grupo de cualquier indole
Toy equipao y con amplificador, tengo experienzia
Azi que zi alguien me nezezita mandenme un mail
Suggest correction
Creating personal tab
Creating personal tab
You can edit any tab online and save it as your Personal.

You can edit, replace or remove any tab part or add personal notes – all changes will be seen only by you.

Personal tabs can be accessed anytime from any device, even offline.
Learn more »
Give kudos to tab author, rate the tab!
1 2 3 4 5
comments
print report bad tab
guest
Wanna post a correction for this tab? Suggest correction