Oops, an error
Loading. Please wait.

Baldor tab

53 views 1 this week
no commentswrite comment
1 2 3 4 5
3 more votes to show rating
add to favorites
×
Save as Personal and add changes to this tab that will be seen only by you. Learn more ›
×
You can save this tab as Personal to edit and correct it or add notes. All changes will be seen only by you. Learn more »
launch autoscroll
font size
0
reset
how to read this tab
guitar tuner
edit
Autoscroll
slow
fast
+/-
esc
set tempo
stop
INTRODUCCIÓN:
A
|--------------------------------------------------|
|--------------------------------------------------|
|--------------------------------------------------|
|---------------------------4-4-4-4--4-4-4-4--4-4--|
|------2----2-3-2----2------4-4-4-4--4-4-4-4--4-4--|
|--3-5---5--------5----5-3--2-2-2-2--2-2-2-2--2-2--|
B
|-----------------------------------------------------------|
|-----------------------------------------------------------|
|-----------------------------------------------------------|
|------------------------------------4-4-4-4--4-4-4-4--4-4--|
|--5-3-2-3-2---2--------2---------2--4-4-4-4--4-4-4-4--4-4--|
|------------5---5--3-5----5--3-5----2-2-2-2--2-2-2-2--2-2--|
C
|-----------------------------------------------------|
|-----------------------------------------------------|
|-----------------------------------------------------|
|------------------------------4-4-4-4--4-4-4-4--4-4--|
|------2----2-3--5-3--2-3-2----4-4-4-4--4-4-4-4--4-4--|
|--3-5---5------------------5--2-2-2-2--2-2-2-2--2-2--|
D
|-----------|
|-----------|
|-----------|
|--4--5--7--|
|--4--5--7--|
|--2--3--5--|

*********************************************************************

VERSO:

|----------------------|
|----------------------|
|--------5-4-----------|
|----5-7-----7-5--(7)--|
|--7-------------------|
|----------------------|

 LA sus      LA       SOL sus    SOL      FA# sus                 
|--10--|   |--9---|   |--8--|   |--7--|   |--7--|
|--10--|   |--10--|   |--8--|   |--8--|   |--7--|
|--9---|   |--9---|   |--7--|   |--7--|   |--6--|
|--7---|   |--7---|   |--5--|   |--5--|   |--4--|
|------|   |------|   |-----|   |-----|   |-----|
|------|   |------|   |-----|   |-----|   |-----|

LA sus                LA
Los inventamos para ordenarnos
   SOL sus              SOL
pero ahora ellos nos ordenan
   FA# sus             
al igual que el doctor frankesteine
LA sus                          LA
nuestro hijo se transformó en problema
SOL sus              SOL
se nos dio vuelta la mano
FA # sus
y dejamos ya de ser humanos

*********************************************************************

PARTE B:

A                       
|--------------------|
|--------------------|
|--------------------|
|-------2-2/3\2---2--|
|--4-5----------5----|
|--------------------|

B
|-----------------------------------|
|-----------------------------------|
|------2-3--2-3-5-3--2-3-2---2------|
|--4-5---------------------5---5-3--|
|-----------------------------------|

C
|--------5----5-6-5----5------------|
|--5-6-8----8--------8---8-6-8-6-5--|
|-----------------------------------|
|-----------------------------------|
|-----------------------------------|
|-----------------------------------|


|-----------------------------------|
|------5-6--5-6-8-6--5-6-5---5------|
|--6-7---------------------7---7-6--|
|-----------------------------------|
|-----------------------------------|
|-----------------------------------|

D
|--8-----7-----|
|-----7-----8--|
|--------------|
|--------------|
|--------------|
|--------------| (esto va aumentando de velocidad en la última parte)


E

La sus - Sol sus - Fa# sus


F

FA#
Lo siento señor si manda todo a la mierda
solo será un cero a la izquierda
FA#
un cero a la izquierda!!!

**********************************************************************

FINAL:

FA#                         SOL               FA#       SOL
SI mandas todo A LA mierda                  |-----|   |-----|
FA#                           SOL           |-----|   |-----| 
serás un cero a la izquierda                |-----|   |-----|
FA#                      SOL                |--4--|   |--5--|
no puede ser diferente                      |--4--|   |--5--|
FA#                          SOL            |--2--|   |--3--|
las matemáticas no mienten           

FA#
aya ye aya ye
FA#
aya ye aya ye
FA#

**********************************************************************

ORDEN:

INTRO (A-B-C-B-D)
VERSO
INTRO (A-B-C-B-D)
VERSO
INTRO (A-B-C-B-D)
PARTE B 
    A-A-B-A-A-B-C-D
    A-A-B-A-A-B-C-D-D
    A-A-B-A-A-B-C-D-D-D-D-D-D-D-D
    A-A-B-A-A-B-C-D-D-D-D-D-D-D-D
    E-F
INTRO (A-B-C-B-B-B)
FINAL

            
            
Suggest correction
Creating personal tab
Creating personal tab
You can edit any tab online and save it as your Personal.

You can edit, replace or remove any tab part or add personal notes – all changes will be seen only by you.

Personal tabs can be accessed anytime from any device, even offline.
Learn more »
Give kudos to tab author, rate the tab!
1 2 3 4 5
comments
print report bad tab
guest
Wanna post a correction for this tab? Suggest correction