Oops, an error
Loading. Please wait.

Brocacochi tab

version 2
version 2

Whole song

53 views 6 this week
no commentswrite comment
1 2 3 4 5
3 more votes to show rating
add to favorites
×
Save as Personal and add changes to this tab that will be seen only by you. Learn more ›
×
You can save this tab as Personal to edit and correct it or add notes. All changes will be seen only by you. Learn more »
launch autoscroll
font size
0
reset
how to read this tab
guitar tuner
edit
Autoscroll
slow
fast
+/-
esc
set tempo
stop
Intro
e|--------------------------------------|
B|--------------------------------------|
G|--------------------------------------|  x2
D|------------------------------------5-|
A|---5/7--7-5---------------------5-7---|
E|-0--------7-5-7-5--3/5-3-5-3-0--------|


Verso: 1 y 2
Em7
Hace algun tiempo
Am7
Todo era perfecto
Em7       Bm7            A#m7
nada me hacía enojar
Am7                 G
todo para mi era gozar

Em7
Fueron pasando los años
Am7
y algo nos hizo daño
Em7        Bm7                A#m7
crecimos sin darnos cuenta
Am7                          G
Al juguete se le acabó la cuerda


Intro


Verso:  3
Em7
Por arte de magia
Am7
Se pierde la gracia
Em7             Bm7       A#m7
volvamos a recuperarla
Am7                 G
comencemos a practicar

Coro
I
e|-----------------------------------------------------------|
B|-----------------------------------------------------------|
G|-----------------------------------------------------------|
D|--5---------------------------------5----------------------|
A|-5-5--75----------------------5-7--5-5--75-----------------|
E|---------6--5-3-5-6--5-3-0-----------------6--5-3-5-6--3-0-|

II
e|----------------------------------------------------------------|
B|----------------------------------------------------------------|
G|----------------------------------------------------------------|
D|-------5---------------------------------5----------------------|
A|-5-7--5-5--75----------------------5-7--5-5--75-----------------|
E|--------------6--5-3-5-6--5-3-0-----------------6--5-3-5-6--3-0-|

I
Mi intension es comprender la vida como antes
tratar de gozar hasta cuando valla a dormir

II
Vivir y reir como un payaso recien pagado
volver a sentir lo que el dia tiene para mi


Verso: 4
= qe los otros

saben que?  el mundo fue avanzando
y yo me fui quedando
escondido en mis propias ideas
dando vueltas el reloj de arena


Verso 5
= que los otros pero con distorsion

como florcita motuda
no tengo ninguna duda
es hora de acercar el placer
y negarse a envejecer


Coro 2

I
e|-----------------------------------------------------------|
B|-----------------------------------------------------------|
G|-----------------------------------------------------------|
D|--5---------------------------------5----------------------|
A|-5-5--75----------------------5-7--5-5--75-----------------|
E|---------6--5-3-5-6--5-3-0-----------------6--5-3-5-6--3-0-|

II
e|---------------------------------|------------|---------------|
B|---------------------------------|------------|---------------|
G|---------------------------------|------------|---------------|x3
D|-------5-------------------------|--------5---|---------------|
A|-5-7--5-5--75--------------------|--5-7--5-5--|---------------|
E|--------------6--5-3-5-6--5-3-0--|------------|-3-6--5-3-5-6--|

e|-------|
B|-------|
G|-------|
D|-------|
A|-------|
E|-3-0---|

I
Mi intension es comprender la vida como antes
tratar de gozar hasta cuando valla a dormir

II
Vivir y reir como un payaso recien pagado
volver a sentir
borrando la razon
que siento sin temor
que el tiempo me aplasta al fin


Final

e|----------------------------------------|
B|----------------------------------------|
G|----------------------------------------|
D|--------------------------------------5-|
A|---5/7--7-5-----------------------5-7---|
E|-0----------7-5-7-5--3/5-3-5-3-0--------|

e|---------------------------------|
B|---------------------------------|
G|---------------------------------|
D|---------------------------------|
A|---5/7--7-5----------------------|
E|-0----------7-5-7-5--3/5-3-5-3-0-|


Aqui un tab (el primero que hago) para todos para toda la comunidad marrana
y ojala que este bueno el tab, y si no, saquen uds lo malo
ya xao aqui carlox (shando pa los amigos) de LOS ANGELES


Y ¡¡¡¡¡¡¡¡VIVA CHILE MIERDA.... Y LOS CHANCHO EN PIEDRA!!!!!!!!!
Suggest correction
Creating personal tab
Creating personal tab
You can edit any tab online and save it as your Personal.

You can edit, replace or remove any tab part or add personal notes – all changes will be seen only by you.

Personal tabs can be accessed anytime from any device, even offline.
Learn more »
Give kudos to tab author, rate the tab!
1 2 3 4 5
comments
print report bad tab
guest
Wanna post a correction for this tab? Suggest correction