Oops, an error
Loading. Please wait.

Calenton bass

23 views 1 this week
no commentswrite comment
1 2 3 4 5
3 more votes to show rating
add to favorites
×
Save as Personal and add changes to this tab that will be seen only by you. Learn more ›
×
You can save this tab as Personal to edit and correct it or add notes. All changes will be seen only by you. Learn more »
launch autoscroll
font size
0
reset
guitar tuner
edit
Autoscroll
slow
fast
+/-
esc
set tempo
stop
Por: Jµªn§µðª|

Ella me tiene, ella me deja... zi k zi

Intro:

G------------------------------
D------------------------------
A?-7-5---5---5-6-7-----5-6-7---
E------7---7-------0-7---------
Ze repite una cachá de vezez

Coro:

G-----------------------------------------------------------
D-----------------------------------------------------------
A------------7-5---5---5-6-7--------7-5---5---5-6-7---------
E--3-3--5-5------7---7-------0-0-0------7---7-------0-0-0---
Ella me tiene... y wea

Puente y punteo:

G--------------------------------------------
D--------------------------------------------
A--------------------------------3-3-3-3-3---
E--1-1-1-1-1-3-3-3-3-3-1-1-1-1-1-------------

G---------------------------------------------------
D---------------------------------------------------
A----------------------0-0-0-0-0-0-0--77777777777---
E--3-3-3-3-3-1-1-1-1-1------------------------------

Final:

G----------------------------------------------
D----------------------------------------------
A------------------------------7-7-7-7-7-7-7---
E?-3-3-3-3-3-3---5-5-5-5-5-5-------------------

Ahí ta, udz la acomodan y wea, ezcuchen bien el tema
Y dezpuéz zacan el bajo. Igual me llega el tema
No ze porque. Un zaluo pa mi mina
PD: Me ofrezco como bajizta para grupo de cualquier indole
Toy equipao y con amplificador, tengo experienzia
Azi que zi alguien me nezezita mandenme un mail
Suggest correction
Creating personal tab
Creating personal tab
You can edit any tab online and save it as your Personal.

You can edit, replace or remove any tab part or add personal notes – all changes will be seen only by you.

Personal tabs can be accessed anytime from any device, even offline.
Learn more »
Give kudos to tab author, rate the tab!
1 2 3 4 5
comments
print report bad tab
guest
Wanna post a correction for this tab? Suggest correction