Oops, an error
Loading. Please wait.

Calenton tab

version 1
version 1

Whole song

34 views 1 this week
no commentswrite comment
1 2 3 4 5
3 more votes to show rating
add to favorites
×
Save as Personal and add changes to this tab that will be seen only by you. Learn more ›
×
You can save this tab as Personal to edit and correct it or add notes. All changes will be seen only by you. Learn more »
launch autoscroll
font size
0
reset
how to read this tab
guitar tuner
edit
Autoscroll
slow
fast
+/-
esc
set tempo
stop
                       Calenton
Original de Devo

   Intro                            4x
E||---------------------------------||
G||---------------------------------||
B||*-------------------------------*||
D||*--0h2--0--1--2--0--0--2--0--1--*||
A||---------------------------------||
E||---------------------------------||
  
  G5      A5
E--------------------------------
G--------------------------------
B--------------------------------
D--5--5---7--7-------------------
A--5--5---7--7-------------------
E--3--3---5--5-------------------


   Versos                           4x
E||---------------------------------||
G||---------------------------------||
B||*-------------------------------*||
D||*--0h2--0--1--2--0--0--2--0--1--*||
A||---------------------------------||
E||---------------------------------||


Letra
========
  
Siempre esta donde la puedes ver
mas cerca de lo que puedes creer
te mata su aroma de difuso olor 
magicamente manchas tu pantalon

G5            A5 
Ella te tiene ella te deja
¡¡Calenton!!!!
   
Ella es la sopa que quieres tomar
solo sueñas de poderte acercar
cuando las ves no le puedes ni hablar
te deja mirar pero nada tocar 

G5            A5 
Ella te tiene ella te deja
¡¡Calenton!!!!(bis)

 G5      A5        
Mira su boca brillar
 G5        C5
siente tu cuerpo girar 
 G5        A5
admite que ella solo 
C5   C5
deja calenton

            
            
Suggest correction
Creating personal tab
Creating personal tab
You can edit any tab online and save it as your Personal.

You can edit, replace or remove any tab part or add personal notes – all changes will be seen only by you.

Personal tabs can be accessed anytime from any device, even offline.
Learn more »
Give kudos to tab author, rate the tab!
1 2 3 4 5
comments
print report bad tab
guest
Wanna post a correction for this tab? Suggest correction