Oops, an error
Loading. Please wait.

De Amarillo Y Gris tab

version 1
version 1

Whole song

61 views 1 this week
no commentswrite comment
1 2 3 4 5
2 more votes to show rating
add to favorites
×
Save as Personal and add changes to this tab that will be seen only by you. Learn more ›
×
You can save this tab as Personal to edit and correct it or add notes. All changes will be seen only by you. Learn more »
launch autoscroll
font size
0
reset
how to read this tab
guitar tuner
edit
Autoscroll
slow
fast
+/-
esc
set tempo
stop
Intro:
-----------------------------------
----------------3------------------
----------------2------------------
----------------3------------------
-7---5h7-5-6--3-2------3--------3--
-5---------4-------3-2-1--1-3h5----

-------------------------------
-------------------------------
-------------------------------
-------------------------------
-7---5h7-5-5---5h7-5-4-5-4-3--
-5---------3---------2-3-2-1--

C                     A#                        Am         F - G#
Mes de abril ya las calles se han vestido de amarillo y gris
C               A#                    Am          F - G#
por aquí aun recorres los pasillos de mi existir
Dm           E                Am  D7
porque no pudimos ni despedirnos
Dm           E           Am
fue tan repentino tu adiós
         D7         Am  A7
que me cuesta asumirlo

Dm        A
Solo quiero decir
Dm
que te extraño a mil

Sabes bien, tu llegada a mi vida
lleno mis días de alegría
conjunción de dos almas parecidas
nuestras miradas se comprendían
no fue necesario hablar para saber
que el tiempo compartido
fue el mejor que he tenido
y el mejor que tú has vivido

Dm        A
Solo quiero decir
Dm                C
que te extraño a mil
      G           F
y tu luz no se apaga

-------------------------------------
------------------3------------------
------------------2------------------
------------------3------------------
-7---5h7-5-6--3-2------3--------3--
-5---------4-------3-2-1--1-3h5----
Perdona mis errores me equivoco, soy un hombre
----------------------------------------
------------------3---------------------
------------------2---------------------
------------------3---------------------
-7---5h7-5-6--3-2------3------3-3h5-3-
-5---------4-------3-2-1--3-5---------
no estuve más tiempo contigo recordarlo es un castigo
-------------------------------------
------------------3------------------
------------------2------------------
------------------3------------------
-7---5h7-5-6--3-2------3--------3--
-5---------4-------3-2-1--1-3h5----
te sueño y grito tu nombre fuiste luz, fuiste fiel, fuiste noble
-------------------------------
-------------------------------
-------------------------------
-------------------------------
-7---5h7-5-5---5h7-5-4-5-4-3--
-5---------3---------2-3-2-1--
te extraña hasta el paisaje este es mi humilde homenaje

Solo: C A# Am F G# x2
      Dm E Am D7
      Dm E Am D7 Am A7

De amarillo y gris
se pinta mi jardín
solo quiero decir
que te extraño a mil
y tu luz no se apaga.

Perdona mis errores me equivoco, soy un hombre
no estuve más tiempo contigo recordarlo es un castigo
te sueño y grito tu nombre fuiste luz, fuiste fiel, fuiste noble
te extraña hasta el paisaje este es mi humilde homenaje...
Suggest correction
Creating personal tab
Creating personal tab
You can edit any tab online and save it as your Personal.

You can edit, replace or remove any tab part or add personal notes – all changes will be seen only by you.

Personal tabs can be accessed anytime from any device, even offline.
Learn more »
Give kudos to tab author, rate the tab!
1 2 3 4 5
comments
print report bad tab
guest
Wanna post a correction for this tab? Suggest correction