Oops, an error
Loading. Please wait.

Del Por Que Se Coibe El Ano En Casa'jena bass

53 views 1 this week
no commentswrite comment
1 2 3 4 5
3 more votes to show rating
add to favorites
×
Save as Personal and add changes to this tab that will be seen only by you. Learn more ›
×
You can save this tab as Personal to edit and correct it or add notes. All changes will be seen only by you. Learn more »
launch autoscroll
font size
0
reset
guitar tuner
edit
Autoscroll
slow
fast
+/-
esc
set tempo
stop
Título:Del Porqué Se Cohibe El Ano En Casa'jena


|-------------------------------------------------------------------------------------|
|-------------------------------------------------------------------------------------|
|-1h3p1---1h3p1----------1-3/4\3-1h3p1--1h3p1---1h3p1-------------------3/4\3-1-3-----|
|-------3-------1-3--1-3----------------------3-------1-3--1-3-1-0-1-3------------1-3-|


                                               ¡chururu churu ruru!
|---------------------------------------------------------------------|
|---------------------------------------------------------------------|
|-----1--3/4\3-1-3-1-1h3p1---1h3p1------------------------------------|
|-1-3----------------------3-------1-3--1-3-1-------------------------|


                          (Odio ocupar......)
|--------------------------------------------5---------------|
|------------------------------5---------------3h5-----------|
|-0-8-8-0-8-8-0-8-8-0-8-8--------3h5------3--------1---------|
|-------------------------6-3--------1-------------------/-\-|


Verso (Pobre del ano.....)
|-------------------------------------------------------------------------------------|
|-------------------------------------------------------------------------------------|
|-1h3p1---1h3p1----------1-3/4\3-1h3p1--1h3p1---1h3p1-------------------3/4\3-1-3-----|
|-------3-------1-3--1-3----------------------3-------1-3--1-3-1-0-1-3------------1-3-|


|----------------------------------------------------|
|----------------------------------------------------|
|-----1--3/4\3-1-3-1-1h3p1---1h3p1--------------1-3--|
|-1-3----------------------3-------1-3--1-3-1-0------|


Coro (Odio ocupar el baño....)
|---------------------------------------------------------|
|---5-3-5---------8-6-8---------5-3-5---------8-8-6-8-----|
|---------3-4-5---------6-6h8---------3-4-5---------------|
|-3-------------6-------------3-------------6---------/-\-|


|-------------------------------------------------------------|
|---5-3-5---------8-6-8---------5-3-5---------8-8-6-8---------|
|---------3-4-5---------6-6h8---------3-4-5-----------6-8p6\1-|
|-3-------------6-------------3-------------6-----------------|


(El humano en la tierra....)
|----5-3-5--------7-5-7-----------5-3-5--------7---6---5-------5-3-5--------7-5-7--------|
|----------3--5---------3-3h5\----------3--5-------------------------3--5---------3-3h5\-|
|-3-------------5--------------3-------------5---4---3---1---3------------5--------------|
|----------------------------------------------------------3-----------------------------|


|---5-3-5--------7-7-|
|---------3--5-------|
|-3------------5-----|
|--------------------|


Con Slap (Lo peor es hacer.....)
|------------------5-5---------------------------5-5---------|
|----------------------------------------------5-------------|
|----1--3-4-3-1-3------3-4-3-1----1--3-4-3-1-3-------3-4-3-1-|
|-3----------------------------3-----------------------------|


|------------------5-5---------------------------5-5---------|
|----------------------------------------------5-------------|
|----1--3-4-3-1-3------3-4-3-1----1--3-4-3-1-3-------3-4-3-1-|
|-3----------------------------3-----------------------------|


|------------|
|-3----------|
|------3-----|
|--------1-2-|


Coro (Odio ocupar el baño....)
|---------------------------------------------------------|
|---5-3-5---------8-6-8---------5-3-5---------8-8-6-8-----|
|---------3-4-5---------6-6h8---------3-4-5---------------|
|-3-------------6-------------3-------------6---------/-\-|


|-------------------------------------------------------------|
|---5-3-5---------8-6-8---------5-3-5---------8-8-6-8---------|
|---------3-4-5---------6-6h8---------3-4-5-----------6-8p6\1-|
|-3-------------6-------------3-------------6-----------------|


(A todo el oyente....)
|----5-3-5--------7-5-7-----------5-3-5--------7---6---5-------5-3-5--------7-5-7--------|
|----------3--5---------3-3h5\----------3--5-------------------------3--5---------3-3h5\-|
|-3-------------5--------------3-------------5---4---3---1---3------------5--------------|
|----------------------------------------------------------3-----------------------------|


|---5-3-5--------7-7-|
|---------3--5-------|
|-3------------5-----|
|--------------------|


Con Slap (Lo peor es hacer.....)
|------------------5-5---------------------------5-5---------|
|----------------------------------------------5-------------|
|----1--3-4-3-1-3------3-4-3-1----1--3-4-3-1-3-------3-4-3-1-|
|-3----------------------------3-----------------------------|


|-------------|
|-------------|
|-------------|
|-1--1--1--1--|


|------------------5-5---------------------------5-5---------|
|----------------------------------------------5-------------|
|----1--3-4-3-1-3------3-4-3-1----1--3-4-3-1-3-------3-4-3-1-|
|-3----------------------------3-----------------------------|


|-------------|
|-------------|
|----1--3--4--|
|-3-----------|


Interludio
|---4---------------4-------------4---------------4-----|
|-5---5-3-5---2/3-5---5-3-2--3--5---5-3-5---2/3-5---5-3-|
|-----------5-----------------------------5-------------|
|-------------------------------------------------------|


Con Slap (Lo peor es hacer.....)
|--------------------5-5---------------------------5-5---------|
|---5--------------------------------------------5-------------|
|-----3-1-3-4-3-1-3------3-4-3-1----1--3-4-3-1-3-------3-4-3-1-|
|-3------------------------------3-----------------------------|


|------------------|
|-3-2-0------------|
|-------3--1-3-----|
|--------------1-2-|


(Casa 'jena......)
(Es mi relax.....)
|---------------------5--------------------------------5------------|
|-----5-------3---------3h5---------5---------3----------3h5--------|
|-------3-------1-3---------1---------3h5-------1-3----------1------|
|-3-------1---------------------3---------1-------------------------|


3:04
|----------------------------------5-3-5------------3-3-1-3----------|
|----5-3-5--------3-1-3-------------------3/5-3--------------1-1h3---|
|----------0-1-----------1h3-x-3----------------5-1----------------1-|
|-3------------1-----------------------------------------------------|


|--------------------------------------5-3-5------------3-3-1-3------------|
|----5-3-5------------3-1-3-------------------3/5-3--------------1-2-3-1---|
|----------1/3-1-------------1h3-x-3----------------5-1------------------1-|
|-3--------------3-1-------------------------------------------------------|


(Chico..............................de que ha servido tu sacrificio)
|--------------------------------------5-3-5------------3-3-1-3------------|
|----5-3-5------------3-1-3-------------------3/5-3--------------1-2-3-1---|
|----------1/3-1-------------1h3-x-3----------------5-1------------------1-|
|-3--------------3-1-------------------------------------------------------|


(Chico.................................................de que ha servido)
|--------------------------------------5-3-5------------3-3-1-3---------|
|----5-3-5------------3-1-3-------------------3/5-3--------------1-2-3--|
|----------1/3-1-------------1h3-x-3----------------5-1-----------------|
|-3--------------3-1----------------------------------------------------|


             |--Percusiones--|
|------------|---------------|-----------------------------------------------------------------|
|------------|---------------|---------------------------------3-2-0---------------------------|
|------1-----|---------------|------1-----------1---------1----------3--1-3-----------1--------|
|-1-3----3---|---------------|-1-3----3---1--3-------1-3----3---------------1-2--1-3----3---/\-|


Verso (Pobre del ano.....)
|-------------------------------------------------------------------------------------|
|-------------------------------------------------------------------------------------|
|-1h3p1---1h3p1----------1-3/4\3-1h3p1--1h3p1---1h3p1-------------------3/4\3-1-3-----|
|-------3-------1-3--1-3----------------------3-------1-3--1-3-1-0-1-3------------1-3-|


|-------------------------------------------------------------------|
|------------------------------------------------------3/5-3--------|
|-----1--3/4\3-1-3-1-1h3p1---1h3p1---------------------------4-3----|
|-1-3----------------------3-------1-3--1-3-1-0--1--3---------------|


Con Distorsión (Odio ocupar el baño....)
|------------------------------------------------------------------|
|------------------------------------------------------------------|
|-1h3p1---1h3p1----------1-3/4\3-1h3p1---1h3p1---1h3p1-------------|
|-------3-------1-3--1-3---------------3-------3-------1-3--1-3-1--|

            
            
Suggest correction
Creating personal tab
Creating personal tab
You can edit any tab online and save it as your Personal.

You can edit, replace or remove any tab part or add personal notes – all changes will be seen only by you.

Personal tabs can be accessed anytime from any device, even offline.
Learn more »
Give kudos to tab author, rate the tab!
1 2 3 4 5
comments
print report bad tab
guest
Wanna post a correction for this tab? Suggest correction