Oops, an error
Loading. Please wait.

Disco Japi tab

136 views 1 this week
no commentswrite comment
1 2 3 4 5
2 more votes to show rating
add to favorites
×
Save as Personal and add changes to this tab that will be seen only by you. Learn more ›
×
You can save this tab as Personal to edit and correct it or add notes. All changes will be seen only by you. Learn more »
launch autoscroll
font size
0
reset
how to read this tab
guitar tuner
edit
Autoscroll
slow
fast
+/-
esc
set tempo
stop
Guia de acordes:

    MIm7  LAm  LA#m   SOL   RE5   SIm
E|---7--|--5--|--6--|--3--|-----|--7--|
B|---8--|--5--|--6--|--3--|-----|--7--|
G|---7--|--5--|--6--|--4--|--5--|--7--|
D|---9--|--7--|--8--|--5--|--5--|--9--|
A|---7--|--7--|--8--|--5--|--7--|--9--|
E|---X--|--5--|--6--|--3--|-----|--7--|

La cancion tiene dos guitarras, la base en canal limpio con un poco de distorción,
la segunda con distorción tipica de los Chancho en Piedra.

Intro:

E|-----------|
B|-----------|
G|-----------|
D|-----------|
A|-----------|
E|--3h5--3---|

Verso 1:

MIm7
Cuando crecí recién algo yo comprendí
Cada uno en su propio juez
Nada sacamos con discutir y criticar
Al condenar sin averiguar

Guitarra de fondo:
E|--\7-7-7-x-7-x-7-x-7-7/6\--|  x8
B|--\8-8-8-x-8-x-8-x-8-8/7\--|
G|--\7-9-7-x-7-x-7-x-7-7/6\--|
D|--\9-9-9-x-9-x-9-x-9-9/8\--|
A|--\7-7-7-x-7-x-7-x-7-7/6\--|
E|---x---x---x---x-----------|


Pre-Coro 1:

LAm                              LAm-LA#m
Hay que juzgar lo que uno hace mal
SIm                 RE5
y no escupir encima de lo que hacen los demás.

NOTA PARA PRE-CORO:
Cuando esta el cambio de Lam a La#m, solo es un cambio rapido, o osea,
que el La#m se toca una vez, no se continua rasgeando.

Coro:

MIm7                   LAm
Quisiera alejar........en este segundo
  MIm7                  LAm
Lo mal intencionado.....de este lugar
MIm7                   SOL
Que quiere derribar lo que hemos hecho
LAm
Durante años.

Intermedio:
MIm7

Verso 2:

MIm7
Mi creación es un mundo....totalmente nuevo
Otro universo, otro lugar....totalmente nuevo
No se puede analizar en forma convencional
Lo sabes bien, mi arte no compite

LAm                         LAm-LA#m
Voy a buscar mi propia verdad
SIm                     RE5
Sin importarme el gusto de los demás

Coro 2:

MIm7                   LAm
Quisiera alejar........en este segundo
  MIm7                  LAm
Lo mal intencionado.....de este lugar
MIm7                   SOL
Que quiere derribar lo que hemos hecho
LAm
Durante años.

Interludio: (Con distorcion)

E|----------------------|----------------------|----------------------|
B|----------------------|----------------------|----------------------|
G|----------------------|----------------------|----------------------|
D|-9-7------------------|-9-7------------------|-9-7------------------|
A|-----10-7----7-10-7---|-----10-7----7-10-7---|-----10-7----7-10-7---|
E|----------10----------|----------10----------|----------10----------|

Entre cada compas tocar E(6°)|-0-0-0-0-0|, mientras se canta

E|---------------------------------------------|
B|---------------------------------------------|
G|---------------------------------------------|
D|--9-7----------------------------------------|
A|------10-7----7-10-7-------------------------|
E|-----------10--------10-7-10-7-5-3-0-0-0-0-0-|

Si criticas lo que hago es un error
En vez de analizarme haz algo mejor
Solo conoce la verdadera intención
El propio autor


Solo de bajo

Verso 3:

MIm7                         LAm   LA#m   LAm        MIm7
Es fácil decir que eso esta malo y no hacer algo mejor,
MIm7                         LAm    LA#m   LAm         MIm7
Es fácil esconderse entre la gente y no gritarlo de frente


Solo guitarra:


    MIm7          LAm   LA#m  LAm       MIm
E|--------------------|---------------------|
B|--------------------|---------------------|
G|------7---7h9~------|------7---7h9~-------|
D|--7h9---9------9-7--|--7h9---9------9-7---|
A|--------------------|-------------------7-|
E|--------------------|---------------------|

Entre el solo y el ultimo coro se toca Lam y Sol 4 veces.

Coro 3: (x4)

MIm7                   LAm
Quisiera alejar........en este segundo
  MIm7                  LAm
Lo mal intencionado.....de este lugar
MIm7                   SOL
Que quiere derribar lo que hemos hecho
LAm
Durante años.

Final:

E|----------------------|----------------------|----------------------|
B|----------------------|----------------------|----------------------|
G|----------------------|----------------------|----------------------|
D|-9-7------------------|-9-7------------------|-9-7------------------|
A|-----10-7----7-10-7---|-----10-7----7-10-7---|-----10-7----7-10-7---|
E|----------10----------|----------10----------|----------10----------|

E|--------------------------|-----|
B|--------------------------|-----|
G|--------------------------|-----|
D|-9-7----------------------|--2--|
A|--------7-10-7------------|--2--|
E|-----10--------10-7-5-3-0-|--0--|

Dudad y consultas al mail

Saludos a los hermanos marranos de corazón
VIVA CHILE MIERDA Y LOS CHANCHO EN PIEDRA

            
            
Suggest correction
Creating personal tab
Creating personal tab
You can edit any tab online and save it as your Personal.

You can edit, replace or remove any tab part or add personal notes – all changes will be seen only by you.

Personal tabs can be accessed anytime from any device, even offline.
Learn more »
Give kudos to tab author, rate the tab!
1 2 3 4 5
comments
print report bad tab
guest
Wanna post a correction for this tab? Suggest correction