Oops, an error
Loading. Please wait.

Eden bass

121 views 1 this week
1 commentread comment
1 2 3 4 5
2 more votes to show rating
add to favorites
×
Save as Personal and add changes to this tab that will be seen only by you. Learn more ›
×
You can save this tab as Personal to edit and correct it or add notes. All changes will be seen only by you. Learn more »
launch autoscroll
font size
0
reset
guitar tuner
edit
Autoscroll
slow
fast
+/-
esc
set tempo
stop
Verso

   s ss sss ss s s p s ss sss s s   s    
|------------------5-------------------|
|--------------------------------------|  x3
|--3-----------------3----------5h7-3--|
|----55-035-33/5-5-----55-035-3--------|


   s ss sss ss s s p s s s s sp ss s    
|------------------5----------5--------|
|--------------------7-5---------------|
|--3---------------------7-6-5---------|
|----55-035-33/5-5--------------33-5---|


coro

   s s s s s s s s s   s s        \
|--------------------------------| |
|------------------------3h4p3h4-| |
|--------3-----3-5-3---3---------| |
|--5-4-3---5-5-------------------| |
                                   |
   s s s s s s s  s s  ssp s s     |x2
|--------------------------------| |
|--------3---------------7-------| |
|--5-3-----5------3--------------| |
|------5-----3-5----5--55--4-3---| |
                                  /


Verso

   s ss sss ss s s p s ss sss s s   s    
|------------------5-------------------|
|--------------------------------------|  x3
|--3-----------------3----------5h7-3--|
|----55-035-33/5-5-----55-035-3--------|


   s ss sss ss s s p s s s s sp ss s    
|------------------5----------5--------|
|--------------------7-5---------------|
|--3---------------------7-6-5---------|
|----55-035-33/5-5--------------33-5---|


coro
                                
   s s s s s s s s s   s s        
|--------------------------------|
|------------------------3h4p3h4-|
|--------3-----3-5-3---3---------|
|--5-4-3---5-5-------------------|
                                  
   s s s s s s s  s s     
|--------------------------------|
|--------3-----------------------|
|--5-3-----5------3-----------3--|
|------5-----3-5----5--00-3-5----|


|------------------------------------------------|
|---------------------------------4h6-4h6-66-4---|
|-5-5---5--3-3--------3------------------------6-|
|----55--5-----00-3-5---3-3-33334----------------|


|------------------------------------------------|
|----------------------------------------5-7-----|
|-5-5---5--3-3--------3----------3---5-7---------|
|----55--5-----00-3-5---444444-4---5-------------|


Solo de guitarra

   s ss sss ss s s p s ss sss s s   s    
|------------------5-------------------|
|--------------------------------------|
|--3-----------------3----------5h7-3--|
|----55-035-33/5-5-----55-035-3--------|

   s ss sss ss s s p s   s  s p s ss s    
|------------------5-------------------|
|-----------------------------3--------|
|--3-------------------- 3h55---5-33-5-|
|----55-035-33/5-5---3h5---------------|


Interludio (tiempo ha pasado...)

|-----------------------------------|
|-----------------------------------|
|--3----------3/5-5-3-0-------------|
|----55-0-3-5----------5-3-1-0h3----|


|-----------------------------------|
|-----------------------------------|
|--3----------3h5-5-3-0-------------|
|----55-0-3-5----------5-3-0-3h5----|

|-----------------------------------|
|-------------3h5------------5h3----|
|--3--------------3-----------------|
|----55-0-3-5-------55-0-3-5--------|


|-----------------------------------|
|-----------------------------------|
|--3----------3h00-33-55-77---------|
|----55-0-3-5---------------7/1-----|


Uh aaau todo el mundo...
                                 \
|---------------------5---7-----| |
|-----------7-5-7---------------| |
|---345-5h7-------0-3---5-------| |
|-5-----------------------------| |
                                  | x3
                                  |
|-------------------------------| |
|-----------7------55---66------| |
|---345-5h7---------------------| |
|-5-----------23-3----3----4----| |
                                 /

|---------------------5---7-----| 
|-----------7-5-7---------------| 
|---345-5h7-------0-3---5-------| 
|-5-----------------------------| 
                                  
                                  
|-------------------------------| 
|-----------7-------------------| 
|---345-5h7---------------------| 
|-5-----------22-33-44-0-12\5---| 


coro
     
   s s s s s s s s s   s s        
|--------------------------------| 
|------------------------3h4p3h4-| 
|--------3-----3-5-3---3---------| 
|--5-4-3---5-5-------------------| 
                                   
   s s s s s s s  s s  ssp s s     
|--------------------------------| 
|--------3---------------7-------| 
|--5-3-----5------3--------------| 
|------5-----3-5----5--55--4-3---|
                          
   s s s s s s s s s   s s        
|--------------------------------|
|------------------------3h4p3h4-|
|--------3-----3-5-3---3---------|
|--5-4-3---5-5-------------------|
                                  
   s s s s s s s  s s     
|--------------------------------|
|--------3-----------------------|
|--5-3-----5------3-----------3--|
|------5-----3-5----5--00-3-5----|


|------------------------------------------------|
|---------------------------------4h6-4h6-66-4---|
|-5-5---5--3-3--------3------------------------6-|
|----55--5-----00-3-5---3-3-33334----------------|

|------------------------------------------------|
|------------------------------------------------|
|-5-5---5--3-3--------3--------------------------|
|----55--5-----00-3-5---3333444444---------------|

|------------------------------------------------|
|---------------------------------4h6-4h6-66-4---|
|-5-5---5--3-3--------3------------------------6-|
|----55--5-----00-3-5---3-3-33334----------------|

|------------------------------------------------|
|----------------------------------------5-7-----|
|-5-5---5--3-3--------3----------3---5-7---------|
|----55--5-----00-3-5---444444-4---5---------7/1-|


final coro

   s ss sss ss s s p s ss sss s s   s    
|------------------5-------------------|
|--------------------------------------|
|--3-----------------3-----------------|
|----55-035-33/5-5-----55-035-3-1/3-1/2|
                                (oh-oh)

   s ss sss ss s s p s   s  s p s ss s    
|------------------5-------------------|
|-----------------------------3--------|
|--3-------------------- 3h55---5-33-5-|
|----55-035-33/5-5---3h5---------------|


Final (... en el cielo funk q habia para todos los animales)

  s     
|-----|
|-----|
|-----|
|-9/1-|

    s   s    p s ss s    
|---------------------|
|------------3--------|  x13
|-------3h55---5-33-5-|
|---3h5---------------|


    s   s    p s s s  s s s  
|---------------------------|
|------------3--------------|  
|-------3h55---3-4-5--5-6-7-|
|---3h5---------------------|


Bueno, a mi parecer la cancion suena muy bien tocando estas shits,
eso sí, tienen q escuchar y practicar harto los riffs, sobre todo los que tienen
slap q son medios peluos, pero una vez q le tomen el ritmo, les va a sonar la raja... 
igual a Felipe ojojojo ;-)

Viva Chile Mierda y los Chancho en Piedra!!
TyRaEl

            
            
Suggest correction
Creating personal tab
Creating personal tab
You can edit any tab online and save it as your Personal.

You can edit, replace or remove any tab part or add personal notes – all changes will be seen only by you.

Personal tabs can be accessed anytime from any device, even offline.
Learn more »
Give kudos to tab author, rate the tab!
1 2 3 4 5
comments
print report bad tab
1 comment total.
0 reply
DonRoyaltie 10 Feb 26, 2017 03:07 PM

buena compadre!

guest
Wanna post a correction for this tab? Suggest correction