Oops, an error
Loading. Please wait.

Eden tab

version 2
version 2

Whole song

87 views 1 this week
no commentswrite comment
1 2 3 4 5
3 more votes to show rating
add to favorites
×
Save as Personal and add changes to this tab that will be seen only by you. Learn more ›
×
You can save this tab as Personal to edit and correct it or add notes. All changes will be seen only by you. Learn more »
launch autoscroll
font size
0
reset
how to read this tab
guitar tuner
edit
Autoscroll
slow
fast
+/-
esc
set tempo
stop
Intro
la guitarra sola 				                          Esta parte es justo antes de 
					                                  k empieza a cantar

|---------------------------------------------|  |-------------------|    |-----------------------------|
|--5-----------5-7-8-5--------------------| x3   |--5--5-7-5---------|    |------------57---------------|
|-----77-5-7-------------------------------|     |----7---------7b---|    |--------57-----7---5-6-7-----|
|---------------------------------------------|  |-------------------|    |---57--------------5-6-7-----|
|---------------------------------------------|  |-------------------|    |--------------------3-4-5----|
|---------------------------------------------|  |-------------------|.   |-----------------------------|

En los versos .se hacen variasiones de lo mismo 

Coro :

 Fiestas eternas un cielo funk...........
|----------------------------------------------------------------------------|
|----------------------------------------------------------------------------|
|-----------5------5-5-7-5---------------------------------------------------|
|--7-6-5--5--7--3-3-7-5------------------------------------------------------|  
|--7-6-5--3--7--3-3-5-3------------------------------------------------------|
|--5-4-3------5--------------------------------------------------------------|


Todas tus penas......quedan atras
|----------------------------------------------------------------------|
|---------------------------------------------------------------------|
|--7-5----10--5---------7-5-------------------------------------------------|
|--7-5-7--10--5--5-7--7-5---7-5------------------------------------------------|  
|--5-3-7----8--3--5-7--5-3---7-5-------------------------------------------------|
|--------5-----------3-5----------5-3-------------------------------------|

Coro 2:

Triste no estare                                    En mi nube...navegare 
|-5-5-5-5-5-3-3-3-3--------------------------3--3--3----5-5--------------------------|
|-6-6-6-6-6-4-4-4-4--------------------------3--3--3----5-5--------------------------|
|-7-7-7-7-7-5-5-5-5-------5-7-7b-7-5---------4--4--4----6-6---577b5-----------------|
|-7-7-7-7-7-5-5-5-5---57---------------------5--5--5----7-7---------7----------------|  
|-5-5-5-5-5-3-3-3-3--------------------------5--5--5----7-7--------------------------|
|--------------------------------------------3--3--3----5-5-----------------|


hu ha en todo el mundo , soy dueño de el fundo 

|-------------------------------------------------10-9-8-----------------------------------|
|--8-10-10-8-10-10-8-10-10-8-10-10-----------10--------------------------------------------|
|------------------------------------------------------------------------------------------|
|------------------------------------------------------------------------------------------|
|------------------------------------------------------------------------------------------|
|------------------------------------------------------------------------------------------|


abro mi mente y camino por sobre el agua , y bajo de ella

|---------------------------------------16b-14b-----------------------------|
|---8-10-10-8-10-10-8-10-10---------------15b-------------------------------|
|---------------------------------------------------------------------------|
|---------------------------------------------------------------------------|
|---------------------------------------------------------------------------|
|---------------------------------------------------------------------------|

Final
|----------------------|  |--------------------------|----------------------|
|-------57-------------|  |--------79b---------------|----------------------|
|----57----7--5-6-7----|  |-----79-------5-6--7------|--5-6-7------12-13-14-|
|-57----------5-6-7----|  |--79----------5-6--7------|--5-6-7------12-13-14-|
|--------------3-4-5---|  |--------------3-4--5------|--3-4-5------10-11-12-|
|----------------------|  |--------------------------|----------------------|
 Ya.....no digo k este perfecta pero es algo si pueden corriganla po.....

            
            
Suggest correction
Creating personal tab
Creating personal tab
You can edit any tab online and save it as your Personal.

You can edit, replace or remove any tab part or add personal notes – all changes will be seen only by you.

Personal tabs can be accessed anytime from any device, even offline.
Learn more »
Give kudos to tab author, rate the tab!
1 2 3 4 5
comments
print report bad tab
guest
Wanna post a correction for this tab? Suggest correction