Oops, an error
Loading. Please wait.

El Durazno Y El Melon bass

version 1
version 1

Whole song

126 views 1 this week
1 commentread comment
1 2 3 4 5
2 more votes to show rating
add to favorites
×
Save as Personal and add changes to this tab that will be seen only by you. Learn more ›
×
You can save this tab as Personal to edit and correct it or add notes. All changes will be seen only by you. Learn more »
launch autoscroll
font size
0
reset
guitar tuner
edit
Autoscroll
slow
fast
+/-
esc
set tempo
stop
ola komo esta
jeje
bueno estes tema esuno de los ke mas me gusta de marca chancho

INTRO:(X2)
G|------------------------------------------------------------------------|
D|------------------------------------------------------------------------|
A|---5--------5---------------------5--------5----------------------------|
E|-----------------------------------------------------------14h15p14-----|
B|3-----x-3-3----x-3--3-5-3-5--55-3----x-3-3----x-3--3-5-3-5----------15--|

VERSO:(X2)
G|----------------------------------------------------|
D|----------------------------------------------------|
A|-5-------------7-5-----7-5-----------5--------7-5---|
E|---7-5-------5-----5-7-----5-------5---7--5-7-----7-|
B|-------3-3/5-----------------3-3/5------------------|

PRE CORO:(X2)
G|-------------------------------------------------------------|
D|-----------------------------------------------------9-7-----|
A|-555--------77-5-----5--77-5-----5---555-4-------9-7-----9-7-|
E|-----5-7-00------5h7---------5h7---7-------555-7-------------|
B|-------------------------------------------------------------|

CORO:(X2)
G|---------------------------------------------------------------|
D|---------------------------------------------------------------|
A|-----x-44-55-66-77---------------x-66-77-88-99-----------------|
E|-5-5----------------2-3-5-----5-7----------------0-2-5-7-5-0-5-|
B|--------------------------3-5----------------------------------|

luego de esto se repite nuevamente
VERSO:(X2)
PRE CORO:(X2)
CORO:(X2)
y ahora viene el puente que va antes de la parte instrumnetal
(1:55)
  salud amigo!!!
G|-----------------------------------------------|
D|-----------------------------------------------|
A|-----------------------------------------------|
E|-5-7-4----------------5-7-4--------------------|
B|-------7-5-3-5-7-3-55-------7-5-3-5-7-3--5-7-3-|

G|-----------------------------------------------------------|
D|-----------------------------------------------------------|
A|-------------------------------5-6-7-8-9---------12-12-----|
E|-5-7-4-----------------5-7-4-------------------12------14--|
B|-------7-5-3-5-7-3--55-------7-----------12h14-------------|

PARTE INSTRUMENTAL
(2:13)varias veses se repite
G|-----------------7---8------------------------------------------|
D|-----------------------------------------------7---8------------|
A|-----5---------5---6----77-5-7-5-7---77-5-7---------------------|
E|-5-7---5-7-5-7---------------------0--------5---6---77-5-7-5-7--|
B|----------------------------------------------------------------|

esto son las variaciones ke le hace al trascurso de la cancion
G|----------------------|
D|----------------------|
A|---------------5-5----|
E|-0-0-1-2-----5-----7--|
B|---------5h7----------|
luego se repite
4 veces el coro y luego el final

FINAL:
G|222---------------------------------------7-7----|
D|----444-222-000-----000-222-3-4-2-0-----7-----9--|
A|----------------222-----------------7h9----------|
E|-------------------------------------------------|
B|-------------------------------------------------|

bueno eso seria el tema espero ke ls guste...
Suggest correction
Creating personal tab
Creating personal tab
You can edit any tab online and save it as your Personal.

You can edit, replace or remove any tab part or add personal notes – all changes will be seen only by you.

Personal tabs can be accessed anytime from any device, even offline.
Learn more »
Give kudos to tab author, rate the tab!
1 2 3 4 5
comments
print report bad tab
1 comment total.
0 reply
dcxpro 10 Mar 29, 2015 05:39 PM

Se pasó compadre, EXCELENTE!

guest
Wanna post a correction for this tab? Suggest correction