Oops, an error
Loading. Please wait.

El Durazno Y El Melon bass

version 2
version 2

Whole song

201 views 6 this week
no commentswrite comment
1 2 3 4 5
3 more votes to show rating
add to favorites
×
Save as Personal and add changes to this tab that will be seen only by you. Learn more ›
×
You can save this tab as Personal to edit and correct it or add notes. All changes will be seen only by you. Learn more »
launch autoscroll
font size
0
reset
guitar tuner
edit
Autoscroll
slow
fast
+/-
esc
set tempo
stop
como saben esta version es de 5 cuerdas aqui esta para un bajo
standard de 4 cuerdas espero que este bien...
cualquier cosa mi correo es colosox@
INTRO:(X2)
G|-----7------7---------------------7---------7---------------------------|
D|------------------------------------------------------------------------|
A|---5--x-5-5------5--5-7-5-7--77-5-.--x-5-5----x-5--5-7-5-7-----99-------|
E|-----------------------------------------------------------------10-----|
VERSO:(X2)
G|----------------------------------------------------|
D|----------------------------------------------------|
A|-5-----5-5-----7-5-----7-5---5-5/7---5--------7-5---|
E|---7-5----0--5-----5-7-----5-------5---7--5-7-----7-|
PRE CORO:(X2)
G|-------------------------------------------------------------|
D|-----------------------------------------------------9-7-----|
A|-555--------77-5-----5--77-5-----5---555-4-------9-7-----9-7-|
E|-----5-7-00------5h7---------5h7---7-------555-7-------------|
CORO:(X2)
G|---------------------------------------------------------------|
D|---------------------------------------------------------------|
A|-----x-44-55-66-77---------------x-66-77-88-99-----------------|
E|-5-5----------------2-3-5---5-7------------------0-2-5-7-5-0-5-|
luego de esto se repite nuevamente
VERSO:(X2)
PRE CORO:(X2)
CORO:(X2)
ahora viene el puente que va antes de la parte instrumental
(1:55)
salud amigo
G|-----------------------------------------------|
D|-----------------------------------------------|
A|-----------5-----5--------------5-----5------5-|
E|-5-7-4-2-0---0-2---00-5-7-4-2-0---0-2----0-2---|

G|---------------------------------------------------2-2---|
D|-------------------------------------------2-----2----4--|
A|-----------5-------------------5-6-7-8-9-2---------------|
E|-5-7-4-2-0---0-2-5--00-5-7-4-2---------------------------|
PARTE INSTRUMENTAL
(2:13)varias veces se repite
G|-----------------7---8------------------------------------------|
D|-----------------------------------------------7---8------------|
A|-----5---------5---6----77-5-7-5-7---77-5-7---------------------|
E|-5-7---5-7-5-7---------------------0--------5---6---77-5-7-5-7--|
esto son las variaciones ke le hace al trascurso de la cancion
G|----------------------|
D|----------------------|
A|---------------5-5----|
E|-0-0-1-2-0h2--5----7--|
luego se repite
4 veces el coro y luego el final
FINAL:
G|222---------------------------------------7-7----|
D|----444-222-000-----000-222-3-4-2-0-----7-----9--|
A|----------------222-----------------7h9----------|
E|-------------------------------------------------|
jeje me guie un poco por el anterior de 5 cuerdas que
estaba en esta pagina gracias al creador del anterior.
Suggest correction
Creating personal tab
Creating personal tab
You can edit any tab online and save it as your Personal.

You can edit, replace or remove any tab part or add personal notes – all changes will be seen only by you.

Personal tabs can be accessed anytime from any device, even offline.
Learn more »
Give kudos to tab author, rate the tab!
1 2 3 4 5
comments
print report bad tab
guest
Wanna post a correction for this tab? Suggest correction