Oops, an error
Loading. Please wait.

Funk Del Balsa bass

46 views 1 this week
no commentswrite comment
1 2 3 4 5
3 more votes to show rating
add to favorites
×
Save as Personal and add changes to this tab that will be seen only by you. Learn more ›
×
You can save this tab as Personal to edit and correct it or add notes. All changes will be seen only by you. Learn more »
launch autoscroll
font size
0
reset
guitar tuner
edit
Autoscroll
slow
fast
+/-
esc
set tempo
stop
Intro 
|----------------------|
|----------------------|
|-5h7-5----------------|
|---------7-8-7-5-7----|


|----------------------------------------------------------|
|----------5----5--2--2--2?2/5--5--5--5?5/12---------------|
|----------------------------------------------------------|
|-3--3--3----3-----------------------------------0-14/3----|


Verso 00:08
|--------------------------------------------------------------------------------------------------|
|----5--5------3-----2--3-3-4-5-5---------------5--5------3-----2--3-3-4-5-5--------------|
|---------5-5-----5------------------3--4--5-----------5-5-----5------------------3?4--5----|
|-3----------------------------------------------3-------------------------------------------------|


|----------------------------------------------------------------------------------|
|----5--5------3-----2--3-3-4-5-5-------------5--5----3-----2--3--4--5-------------|
|---------5-5-----5----------------3--4--5--------5-5----5-------------------------|
|-3-----------------------------------------3---------------------------0--1--2----|


Coro  00:20
|---------------------------------------|
|---5-5----5-5----5-5----5-5------------|
|---------------------------------------|
|-3-----3------3------3---------12/3----|


Verso  00:26
|----------------------------------------------------------------------------------------|
|----5--5------3-----2--3-3-4-5-5--------------5--5------3-----2--3-3-4-5-5--------------|
|---------5-5-----5----------------3--4--5----------5-5-----5------------------3--4--5---|
|-3-----------------------------------------3--------------------------------------------|


|-------------------------------------------------------------------------------------|
|---5--5------3-----2--3-3-4-5-5--------------5--5------3-----2--3--4--5--------------|
|--------5-5-----5----------------3--4--5----------5-5----5---------------------------|
|-3----------------------------------------3-------------------------------0--1--2----|


Coro  00:38
|---------------------------------------------------------------------|
|---5-5---5-5---5-5---5-5----------5-5---5-5---5-5---5-5-5-5-5-3------|
|----------------------------------------------------------------5----|
|-3-----3-----3-----3------0--1--3-----3-----3-----3------------------|

Puente  00:49
|----------------------------------------------------------|
|---------5---5--2--2--0-2-0-2-0--5--5--5?5/14----12--9----|
|----------------------------------------------------------|
|-3--3--3---3----------------------------------------------|


Solo  00:55
|---------------10-11-12----------------------------------------|
|----9-9-10-12-----------------------------------12-------------|
|-10----------------------------10--12--14?12h14----14-13-12----|
|-------------------------10h12---------------------------------|


|--------------------------------------------------------|
|----9-9-10-10/12--------------------------12--14-12-----|
|-10---------------10-10-------10--12--14----------------|
|------------------------10h12---------------------------|


|-------------------10-11-12---12h14-12---12------------------|
|----9-9--10--12-----------------------14---14-12---10--12----|
|-10----------------------------------------------------------|
|-------------------------------------------------------------|


|---------------------------------------------|
|----9-10/12--10-9-10------9------------------|
|-10------------------9h10--10-9-7--9-7-------|
|---------------------------------------5-----|


Puente 01:07
|-------------------------------------|
|---------5---5---2-0-----------------|
|----------------------3-2-0-5--------|
|-3--3--3---3-------------------3-----|


Verso  01:10  (Solo de guitarra)
|-----------------------------------------------------------------------------------------|
|----5--5------3-----2--3-3-4-5-5---------------5--5------3-----2--3-3-4-5-5--------------|
|---------5-5-----5----------------3--4--5-----------5-5-----5------------------3?4--5----|
|-3------------------------------------------3--------------------------------------------|


|----------------------------------------------------------------------------------------|
|----5--5------3-----2--3-3-4-5-5---------------5--5------3-----2--3--4--5---------------|
|---------5-5-----5-----------------3--4--5----------5-5-----5---------------------------|
|-3-------------------------------------------3-------------------------------0--1--2----|


Coro  01:22 
|----------------------------------------------------------------5--5-5-5--5-3------------|
|---5-5----5-5----5-5----5-5--------7-7---7-7-------8-8------------------------5-3--------|
|-------------------------------------------------------------3----------------------5----|
|-3-----3------3------3-------3-4-5-----5-----4-5-6-----5-6-------------------------------|

 
Puente y final  01:34
|-----------------------------------------7--------|
|-----------5---5--2--2-0-2-0-2-0-2/5--5-----5-----|
|--------------------------------------------------|
|-3--3--3---3--------------------------------------|


Deben escuchar varias veces la canción, cualquier duda, consulta o error, 
envíenlo al mail o búsquenme en el chat  canal partuzza pregunten por coke-bass.

Espero que les sirva, por ultimo ¡¡¡VIVA CHILE MIERDA Y LOS CHANCHO EN PIEDRA!!!
Suggest correction
Creating personal tab
Creating personal tab
You can edit any tab online and save it as your Personal.

You can edit, replace or remove any tab part or add personal notes – all changes will be seen only by you.

Personal tabs can be accessed anytime from any device, even offline.
Learn more »
Give kudos to tab author, rate the tab!
1 2 3 4 5
comments
print report bad tab
guest
Wanna post a correction for this tab? Suggest correction