Oops, an error
Loading. Please wait.

La Vida Del Oso bass

362 views 1 this week
no commentswrite comment
1 2 3 4 5
1 last vote to show rating
add to favorites
×
Save as Personal and add changes to this tab that will be seen only by you. Learn more ›
×
You can save this tab as Personal to edit and correct it or add notes. All changes will be seen only by you. Learn more »
launch autoscroll
font size
0
reset
guitar tuner
edit
Autoscroll
slow
fast
+/-
esc
set tempo
stop
Aquí tablatura modificada de una de las
canciones mas secas del disco desde el batiscafo
asi q aprovéchenla eso no mas ahí ta.

Intro (puro slap en la 1º y 2º cuerda y poping en la 3º y 4º cuerda)
G-----1212----1212-----12------------------------|
D------------------------------1010----88h108----|
A-1010----1010-----1010------------8h10------10--|
E-----------------------------8------------------|

G----------------------------------------------------|
D---1010----8-8h10----10---12----14----16-----~17--|
A-------8h10-----------------------------------------|
E--8-----------------------88--1010--1212--1414------|

Aquí empieza la guitarra (punteo)
G-20--19--18---------------------------------------------|
D-21--20--19-------13-15-13-15-14-13---------------~17---|
A-------------13h15-----------------15-14-13-15-13-------|
E--------------------------------------------------------|

G---20--19--18------------------------------|
D---21--20--19------------------------------|
A------------------------------3-4-5-5-6----|
E-------------17/3-3-4-5-5-6-7--------------|

Verso 1(se puede hacer con punteo o slap)

trabajo todo el día para ser feliz
G--------------------------------|
D---------------2----------------|
A-7-7-5-7----------------3-------|
E--------0-3-5-3--5-5-3-5--5-3-5-|

tengo más gastos que ingresos
G-------------------------------------|
D-------------------------------------|
A-7-7-5-7-------------------3-4-5-5-6-|
E--------0-3-5-3-3-4-5-5-6-7----------|

un crédito... ¡crédito!
G--------------------------------|
D---------------2----------------|
A-7-7-5-7----------------3-------|
E--------0-3-5-3--5-5-3-5--5-3-5-|

tengo que sacarme la cresta
G-------------------------------------|
D-------------------------------------|
A-7-7-5-7-------------------3-4-5-5-6-|
E--------0-3-5-3-3-4-5-5-6-7----------|

el dinero, no compra felicidad,
G--------------------------------|
D---------------2----------------|
A-7-7-5-7----------------3-------|
E--------0-3-5-3--5-5-3-5--5-3-5-|

pero puta que ayuda a costearla
G-------------------------------------|
D-------------------------------------|
A-7-7-5-7-------------------3-4-5-5-6-|
E--------0-3-5-3-3-4-5-5-6-7----------|


no te esfuerses demasiado en ahorrar
G--------------------------------|
D---------------2----------------|
A-7-7-5-7----------------3-------|
E--------0-3-5-3--5-5-3-5--5-3-5-|

juega tu sueldo a las carreras
G-------------------------------------|
D-------------------------------------|
A-7-7-5-7-------------------3-4-5-5-6-|
E--------0-3-5-3-3-4-5-5-6-7----------|

Pre-coro 1 (slap)

Trabajas todo el dia     |viviendo una rutina(slap)
G---7---------------7----|-7---------------------------|
D-----------5------------|-----------5---7---9---7-----|
A-5--5-4-3-------3-5-----|--5--------------------------|
E----------3--0-3--------|--- 12/--3---5---7---5-------|

Ya es hora de salir de ahii
G---7--------------------|
D-----------5------------|
A-5--5-4-3-------3/5-----|
E---------3---0-3--------|

Verso 2

ahiiiiiiiii
G--------------------------------|
D---------------2----------------|
A-7-7-5-7----------------3-------|
E--------0-3-5-3--5-5-3-5--5-3-5-|

Y compartir (asi no tienes tantos gastos)
G-------------------------------------|
D-------------------------------------|
A-7-7-5-7-------------------3-4-5-5-6-|
E--------0-3-5-3-3-4-5-5-6-7----------|

Sal de casa   da un paseo por ahi
G--------------------------------|
D---------------2----------------|
A-7-7-5-7----------------3-------|
E--------0-3-5-3--5-5-3-5--5-3-5-|

Ahiii  dejale pega a otros tontos
G-------------------------------------|
D-------------------------------------|
A-7-7-5-7-------------------3-4-5-5-6-|
E--------0-3-5-3-3-4-5-5-6-7----------|

Pre-coro 2 (slap)

Es una tonteria            perder mas energia
G---7---------------7----|-7---------------------------|
D-----------5------------|-----------5---7---9---7-----|
A-5--5-4-3-------3-5-----|--5--------------------------|
E----------3--0-3--------|--- 12/--3---5---7---5-------|

Que esperas para ser feliz
G---7---------------7--7------------|
D-----------5-----------------------|
A-5--5-4-3-------3-5----5----7-6-~5-|
E---------3---0-3---------12/-------|

Coro 1(slap)

hey es el momento      de que agas un movimiento    (sin slap)
G--------------55------|---55-----------7--|-----------------|
D----55----------------|-------------------|-----3-----------|
A------------33--0-3---|-33?0-3-0-3-0-55?--|-3h5--5-3-5-3----|
E--33--0-3-6---------3-|-------------------|-------------5---|

Salir, volar             dale tiempo al oso
G--------------55------|---55-----------7--|-----------------|
D----55----------------|-------------------|-----3-----------|
A------------33--0-3---|-33?0-3-0-3-0-55?--|-3h5--5-3-5-3----|
E--33--0-3-6---------3-|-------------------|-------------5---|
Ve a completar            los sueños q algun dia
G--------------55------|---55-----------7--|-----------------|
D----55----------------|-------------------|-----3-----------|
A------------33--0-3---|-33?0-3-0-3-0-55?--|-3h5--5-3-5-3----|
E--33--0-3-6---------3-|-------------------|-------------5---|
Salir, volar             dale tiempo al oso con la vida del oso.
G--------------55------|---55-----------7--|-----------------|
D----55----------------|-------------------|-----3-----------|
A------------33--0-3---|-33?0-3-0-3-0-55?--|-3h5--5-3-5-3----|
E--33--0-3-6---------3-|-------------------|-------------5---|
Guitarra sola y entra el bajo
G--------------------------------|
D--------------------------------|
A-------------------3-4-5-5-6----|
E--17/3-3-4-5-5-6-7--------------|

*Verso 3

*Pre- coro 3

*Verso 4

*Coro 2

*Outro(solo punteo)
G--------------------------------------------|-------------------
D-55-3-5--------------0-------------0--------|----------3--------
A-------01-31---33-1-3-1-0-1--33-1-3-1-0-3---|-55-35-3h5--5-3----
E--------------------------------------------|---------------5---
Esta es una pequeña correccion de la otra si se fijan
En el coro y precoro y tiene el outro
Ya eso fue todo = la cansion es difícil pero si se dan el
tiempo de escucharla van a notar q es asi.
Alguna duda o reclamo o si alguien me quiere decir acaso
ta mala
la cansion no lo pescare jaja no broma
aquí ta mi mail si esta mala me dicen nomas
f_mingo_@
xao y saludos pa los xangos de aquí mi ciudad chillancity
y a elgranlegolas???
viva chile mierda¡¡¡ y los chancho en piedra¡¡¡¡¡

            
            
Suggest correction
Creating personal tab
Creating personal tab
You can edit any tab online and save it as your Personal.

You can edit, replace or remove any tab part or add personal notes – all changes will be seen only by you.

Personal tabs can be accessed anytime from any device, even offline.
Learn more »
Give kudos to tab author, rate the tab!
1 2 3 4 5
comments
print report bad tab
guest
Wanna post a correction for this tab? Suggest correction