Oops, an error
Loading. Please wait.

Largotour tab

50 views 1 this week
no commentswrite comment
1 2 3 4 5
3 more votes to show rating
add to favorites
×
Save as Personal and add changes to this tab that will be seen only by you. Learn more ›
×
You can save this tab as Personal to edit and correct it or add notes. All changes will be seen only by you. Learn more »
launch autoscroll
font size
0
reset
how to read this tab
guitar tuner
edit
Autoscroll
slow
fast
+/-
esc
set tempo
stop
Intro:
-------14-17- x2 -------9-12-- x2 ------12-15-- x2
--15-15------    --10-10-------   -12-12-------
-------------    --------------   -------------
-------------    --------------   -------------
------------     --------------   -------------
------------     -------------    -------------

-------14-17- x2 -------9-12-- x2
--15-15------    --10-10-------
-------------    --------------
-------------    --------------
------------     --------------
------------     -------------


A._
MIm
A esta hora justamente a esta hora
SIm                             LA
en que tu cerebro empieza a cabecear
MIm
con la ultima telenovela
SIm                    LA
quisiera sacarte a caminar
             MIm
en un largo tour.


B._
     SOL    LA         MIm
//por pudahuel y la bandera
SOL       LA            MIm
por pudahuel y por la legua//
SIm          LA        MIm
y verias la vida tal como es(bis)

A._(intru)
A esta hora justamente a esta hora
en que empiezas a sentir
que nada pasa y todo pasa
quisiera sacarte a caminar
por un largo tour.


intro + intru

                 x2 /
--------------------/-----------/-------------------/---------
--------------------/-----------/-------------------/---------
----12-16---12-16-12/----16-12--/-------------------/-----14--
--14------14--------/--14-----14/----12-16--12-16-12/---11----
--------------------/-----------/--14-----14--------/-12------
--------------------/-----------/-------------------/---------

A._
A esta hora justamente a esta hora
en que empiezas a mirar
60 mentiras por minuto
quisiera sacarte a caminar
en un largo tour

B._
por pudahuel y la bandera...


Saludos marranos, aqui les dejo la cancion ojala les sirva, y aguante
chancho en piedra y LOS MANDINGAS!!!
atte. ale!
Suggest correction
Creating personal tab
Creating personal tab
You can edit any tab online and save it as your Personal.

You can edit, replace or remove any tab part or add personal notes – all changes will be seen only by you.

Personal tabs can be accessed anytime from any device, even offline.
Learn more »
Give kudos to tab author, rate the tab!
1 2 3 4 5
comments
print report bad tab
guest
Wanna post a correction for this tab? Suggest correction