Oops, an error
Loading. Please wait.

Lassio tab

35 views 3 this week
no commentswrite comment
1 2 3 4 5
3 more votes to show rating
add to favorites
×
Save as Personal and add changes to this tab that will be seen only by you. Learn more ›
×
You can save this tab as Personal to edit and correct it or add notes. All changes will be seen only by you. Learn more »
launch autoscroll
font size
0
reset
how to read this tab
guitar tuner
edit
Autoscroll
slow
fast
+/-
esc
set tempo
stop
INTRO:

1era guitarra
|--------------------------------------------------------|
|--------------------------------------------------------|
|--7-5-4---------4--4-5-7-5-4-------------------4--------|
|--------7-5-4-5--------------7--4-5-4----4-5-7---7-5-4--|
|---------------------------------------5----------------|
|--------------------------------------------------------|

2a guitarra
|------------------------------------------------|
|------------------------------------------------|
|------------------------------------------------|
|--5--4-5-7-5-4---------------------------7-4----|
|---------------5--3-5-7-5-3-3/5\3------------5--|
|----------------------------------7-5-3---------|


VERSO:

A.
|--------------------------------|
|--------------------------------|
|------4----------4--------------|
|--4-5---5-5--4-5---5-4-5-4------|
|---------------------------7-5--|
|--------------------------------|

B.
|---------------------------------|
|---------------------------------|
|---------------------------------|
|---------------------------------|
|----3-5-7--5-3----3-5-3----------|
|--7-------------7-------7-5-3-3--|

C.
|---------------------------------|
|---------------------------------|
|---------------------------------|
|---------------------------------|
|----3-5-7--5-3----3-5-3---3-5-3--|
|--7-------------7-------7--------|

D.
|----------------------------------------------------|
|----------------------------------------------------|
|------4----------4------------------4----------4-7--|
|--4-5---5-5--4-5---5-4-5-5-5-5--4-5---5-5--4-5------|
|----------------------------------------------------|
|----------------------------------------------------|

E.
|----------------------------------------------------|
|----------------------------------------------------|
|------4----------4------------------4---------------|
|--4-5---5-5--4-5---5-4-5-5-5-5--4-5---5-5--5-4------|
|-----------------------------------------------5-7--|
|----------------------------------------------------|


CORO:
  MI        RE        LA        DO        SOL
|-----|   |-----|   |-----|   |-----|   |-----|
|-----|   |-----|   |-----|   |-----|   |-----|
|--9--|   |--7--|   |-----|   |--5--|   |-----|
|--9--|   |--7--|   |--7--|   |--5--|   |--5--|
|--7--|   |--5--|   |--7--|   |--3--|   |--5--|
|-----|   |-----|   |--5--|   |-----|   |--3--|

MI                      RE        LA
Pobre campeón, Lassio perdió su honor
MI                      RE        LA
su reputación por el suelo se quedo
RE     DO   SOL      RE
a concretar no alcanzó
         DO    SOL        RE
por culpa de su maldición


PARTE B:

A.
|-------------|
|-------------|
|-------------|
|--5-3--------|
|------7-5-4--|
|-------------|

B.
|-------------|
|-------------|
|-------------|
|--7-5-4------|
|--------7-5--|
|-------------|

C.
|-------------|
|-------------|
|--7-5-4------|
|--------7-5--|
|-------------|
|-------------|

D.
|-----------------|
|-----------------|
|--------4-5-7-5--|
|--4-5-7----------|
|-----------------|
|-----------------|


ORDEN:

INTRO
VERSO (A-B-A-C-A-B-A-B-D)
INTRO
VERSO (A-B-A-C-A-B-A-B-E)
CORO
PARTE B  
   A-A-A-B-B-C-C-D
   A-A-B-B-C-C-D
   A-A-B-B-C-C-D
   A-A-B-B-C-C-D
VERSO
CORO
CORO
PARTE B (A)
INTRO

            
            
Suggest correction
Creating personal tab
Creating personal tab
You can edit any tab online and save it as your Personal.

You can edit, replace or remove any tab part or add personal notes – all changes will be seen only by you.

Personal tabs can be accessed anytime from any device, even offline.
Learn more »
Give kudos to tab author, rate the tab!
1 2 3 4 5
comments
print report bad tab
guest
Wanna post a correction for this tab? Suggest correction