Oops, an error
Loading. Please wait.

Mala Yerba tab

20 views 1 this week
no commentswrite comment
1 2 3 4 5
3 more votes to show rating
add to favorites
×
Save as Personal and add changes to this tab that will be seen only by you. Learn more ›
×
You can save this tab as Personal to edit and correct it or add notes. All changes will be seen only by you. Learn more »
launch autoscroll
font size
0
reset
how to read this tab
guitar tuner
edit
Autoscroll
slow
fast
+/-
esc
set tempo
stop
Principio(Despues del acople)             
C------------------------------------------
B------------------------------------------
A------------------------------------------
G------------------------------------------
D---7--7--7--7--7--7--7--7--7--7-----------
E---5--5--5--5--5--5--5--5--5--5-----------
                                          
                                          
C||------------------------------------------
B||------------------------------------------
A||*-----------------------------------------
G||*-----------------------------------------
D||---7--7--7--7--7--7--7--7--7--7--7--7--7--
E||---5--5--5--5--5--5--5--5--5--5--5--8--5--
                                              

C--------------------------------------------
B--------------------------------------------
A--------------------------------------------
G--------------------------------------------
D--7--7--7--7--7--7--7--7--7--7--7--7--7--7--
E--8--5--5--5--5--5--5--5--5--5--5--5--8--5--
                                              
                                         4x
C----------------------------------------||
B----------------------------------------||
A---------------------------------------*||
G---------------------------------------*||
D---7--7--7--7--7--7--7--7--7--7--7--7---||
E---8--5--5--5--5--5--5--8--5--8--5--8---||


   Coro                                               
C||------------------------------------------||
B||------------------------------------------||
A||------------------------------------------||
G||---5--5--5--5--5--5--5--5--7--7--7--7--7--||
D||---3--3--3--3--3--3--3--3--5--5--5--5--5--||
E||------------------------------------------||
                                                  

Letra
=====

Los mocos en mi nariz, 
la flema me mata, 
los hongos en mis pies, 
quesillo Rockefeller, 
las ñatas estan cosidas de tanto sonarse, 
maldita diarrea, 
me fui por el WC. 

La Mala Yerba, esa nunca muere. 

Mantequilla ya hay bastante 
posada en mis espinilas 
y el sarro en mis dientes, 
ya tengo olor a muerte, 
ya me dio la Cristal y Papera, 
Escarlatina y Baricela. 
Ya se fue hasta el viejo del saco 
por mi olor a tabaco y sobaco. 

La Mala Yerba, esa nunca muere.

            
            
Suggest correction
Creating personal tab
Creating personal tab
You can edit any tab online and save it as your Personal.

You can edit, replace or remove any tab part or add personal notes – all changes will be seen only by you.

Personal tabs can be accessed anytime from any device, even offline.
Learn more »
Give kudos to tab author, rate the tab!
1 2 3 4 5
comments
print report bad tab
guest
Wanna post a correction for this tab? Suggest correction