Oops, an error
Loading. Please wait.

Me Vuelvo Mono bass

233 views 1 this week
no commentswrite comment
1 2 3 4 5
3 more votes to show rating
add to favorites
×
Save as Personal and add changes to this tab that will be seen only by you. Learn more ›
×
You can save this tab as Personal to edit and correct it or add notes. All changes will be seen only by you. Learn more »
launch autoscroll
font size
0
reset
guitar tuner
edit
Autoscroll
slow
fast
+/-
esc
set tempo
stop
Tab por Alexis Letelier

Debo aclarar que no soy bajista; soy guitarrista,
sin embargo me gusta sacar las lineas melodicas de
bajo de los temas que me gustan, no es la primera vez que
publico en esta pagina, de hecho pueden revisar mi tab de
bajo de lophopora que subi hace bastante tiempo con la ayuda de un amigo.


ahi esta el link para que lo revisen.

ahora este tema esta a medias ya que le faltan unas escalitas
en algunos versos (y verificar bien los efectos que les sugiero)
y que mas adelante los publicaré.
por ahora le sirve de guia lo que hice,esta a un 95% del tema  final.


disfruten !!!!


 ME VUELVO MONO (CHANCHO EN PIEDRA)
||||||||||||||||||||||||||||||||||||

INTRO:
******
G-----------|-----------|----------|
D-----------|-----------|----------|
A-7---------|-5---------|-3--------|
E-----------|-----------|----------|


VERSO1:
********


G---------------|-------------|---------------|--------------------|
D---------------|4-4h5--4h5---|---------------|--------------------|
A---------------|-------------|---------------|-0-3-0--5h3--3-0----|
E-3----5--------|-------------|-3----5--------|--------------------|


G---------------|--------------|----------------|--------------------|
D---------------|4-4h5--4h5----|----------------|------------5-------|
A---------------|--------------|----------------|-0-3-0--5/7--7-5----|
E-3----5--------|--------------|-3----5---------|--------------------|


G---------------|-----------------|-------------|----------------------|
D---------------|4-4h5--4h5-------|-------------|----------------------|
A---------------|-----------------|-------------|-5-4-3--3b0-----------|
E-3----5--------|-----------------|-3----5------|----------------------|


G---------------|-------------|------------|--------------------------|
D---------------|4-4h5--4h5---|------------|--------------------------|
A---------------|-------------|------------|-0-3-0--6-5-3-5h3--3-0----|
E-3----5--------|-------------|-3----5-----|--------------------------|


G---------------|---------------|-----------------|--------------------|
D---------------|4-4h5--4h5-----|-----------------|--------------------|
A---------------|---------------|-----------------|-0-3-0--5h3--3-0----|
E-3----5--------|---------------|-3----5----------|--------------------|


G---------------|--------------|----------------|--------------------|
D---------------|4-4h5--4h5----|----------------|------------5-------|
A---------------|--------------|----------------|-0-3-0--5/7--7-5----|
E-3----5--------|--------------|-3----5---------|--------------------|


G---------------|-----------------|-------------|----------------------|
D---------------|4-4h5--4h5-------|-------------|----------------------|
A---------------|-----------------|-------------|-5-4-3--3b0-----------|
E-3----5--------|-----------------|-3----5------|----------------------|


G---------------|-------------|------------------|--------------------------|
D---------------|4-4h5--4h5---|------------------|--------------------------|
A---------------|-------------|------------------|-33-55-6/3----------------|
E-3----5--------|-------------|-3----5-----------|--------------------------|


CORO 1:
********

siempre ...
G|------------------------|----------------------|
D|------------------------|----------------------|
A|------------------------|----------------------|
E|-5--0-5-4---------------|-3--0-3-2--2-2h3--3h5-|


G|---------------|-------------------------------|
D|---------------|-------------------------------|
A|---------------|-------------------------------|
E|-5/7/5-4-------|4/5-5/4---3--0-3-2--3----------|


VERSO2:
********


G|---------------|--------------|---------------|--------------------|
D|---------------|4-4h5--4h5----|---------------|--------------------|
A|---------------|--------------|---------------|-0-3-0--5h3--3-0----|
E|-3----5--------|--------------|-3----5--------|------------------0-|


G|---------------|--------------|----------------|--------------------|
D|---------------|4-4h5--4h5----|----------------|------------5-------|
A|---------------|--------------|----------------|-0-3-0--5/7--7-5----|
E|-3----5--------|--------------|-3----5---------|--------------------|


G|---------------|-----------------|---------------|----------------------|
D|---------------|4-4h5--4h5-------|---------------|----------------------|
A|---------------|-----------------|---------------|-5-4-3--3b0-----------|
E|-3----5--------|-----------------|-3----5--------|----------------------|


G|---------------|-------------|-------------------|--------------------------|
D|---------------|4-4h5--4h5---|-------------------|--------------------------|
A|---------------|-------------|-------------------|-0-3-0--6-5-3-5h3--3-0----|
E|-3----5--------|-------------|-3----5------------|--------------------------|


(CORO 1)--

CORO 2:
********

 solo cinco los consejos  ...
G|------------------------|----------------------|
D|------------------------|----------------------|
A|------------------------|----------------------|
E|-5--0-5-7---------------|--------0-7-8--0-8-10-|


G|----------------------|-----------------------------------------|
D|----------------------|-----------------------------------------|
A|----------------------|-----------------------------------------|
E|--5--0-5-7--7-7-7-7-7-|0-7-8--0-8-10------10-11-10--8--5-0--5-8-|


coro 3:
********

que es lo que te pasa ...
G|--------------------|------------|
D|--------------------|------------|
A|------5-6-5-3-5-3---|----3-------|
E|------------------5-|--3---3-5---|


G|----------------------------------|
D|----------------------------------|
A|---3----3-----------3-6-5-3-3-5-3-|
E|-5--5-3---5-5-5-3-5---------------|

Me vuelvo mono (ahh-ah!, ahh-ah!)
G|----------|
D|----------|
A|3-------3-|
E|--5-3-5---|

Peludo y alocado, primitivo y porfiado,
G|--------------------|------------|
D|--------------------|------------|
A|------5-6-5-3-5-3---|----3-------|
E|------------------5-|--3---3-5---|

Al cuco enfrento sin temor con sentido de humor.
G|----------------------------------|
D|----------------------------------|
A|---3----3-----------3-6-5-3-3-5-3-|
E|-5--5-3---5-5-5-3-5---------------|

Me vuelvo mono (ahh-ah!, ahh-ah!)
G|----------|
D|----------|
A|3-------3-|
E|--5-3-5---|

No me corto el pelo, odio el dinero,
G|--------------------|------------|
D|--------------------|------------|
A|------5-6-5-3-5-3---|----3-------|
E|------------------5-|--3---3-5-3-|

Para ser millonario hay que ser mercenario,Prefiero ser como soy.
G|----------------------------------|
D|----------------------------------|
A|---3----3-----------3-6-5-3-3-5-3-|
E|-5--5-3---5-5-5-3-5---------------|


Me vuelvo mono (ahh-ah!, ahh-ah!)
G|--------|
D|--------|
A|------3-|
E|5-3-5---|

Aspecto cavernario, libre de pecado,
G|--------------------|------------|
D|--------------------|------------|
A|------5-6-5-3-5-3---|----3-------|
E|------------------5-|--3---3-5-3-|

Eslabón perdido de la evolución,    | Darwin tenia razón.
G|----------------------------------|
D|----------------------------------|
A|---3----3-----------3-6-5-3-3-5---|
E|-5--5-3---5-5-5-3-5---------------|


verso 3:
*********

 juega al trompo ...
G|---------------|--------------|---------------|---------------------|
D|---------------|4-4h5--4h5----|---------------|---------------------|
A|---------------|--------------|---------------|-0-3-0--5h3--3-0-----|
E|-3----5--------|--------------|-3----5--------|------------------0--|


G|-----------------|--------------|-----------------|--------------------|
D|-----------------|4-4h5--4h5----|-----------------|------------5-------|
A|-----------------|--------------|-----------------|-0-3-0--5/7--7-5----|
E|-3----5----------|--------------|-3----5----------|--------------------|


G|---------------|-----------------|------------------|----------------------|
D|---------------|4-4h5--4h5-------|------------------|----------------------|
A|---------------|-----------------|------------------|-5-4-3--3b0-----------|
E|-3----5--------|-----------------|-3----5-----------|----------------------|


D|---------------|4-4h5--4h5---------|-------------|----------------------|
A|---------------|-------------------|-------------|-0-3-0--5h3--3-0------|
E|-3----5--------|-------------------|-3----5------|------------------0---|


(CORO 1)

(CORO 2)

CORO 4:
********

A|------------------------|----------------------|
E|-5--0-5-7---------------|--------0-7-8--0-8-10-|


A|----------------------|-----------------------------------------|
E|--5--0-5-7--7-7-7-7-7-|0-7-8--0-8-10------10-11-10--8--5-0--5-8-|

que es lo que te pasa ...
G|--------------------|------------|
D|--------------------|------------|
A|------5-6-5-3-5-3---|----3-------|
E|------------------5-|--3---3-5---|


G|----------------------------------|
D|----------------------------------|
A|---3----3-----------3-6-5-3-3-5-3-|
E|-5--5-3---5-5-5-3-5---------------|

Me vuelvo mono (ahh-ah!, ahh-ah!)
G|----------|
D|----------|
A|3-------3-|
E|--5-3-5---|


G|--------------------|------------|
D|--------------------|------------|
A|------5-6-5-3-5-3---|----3-------|
E|------------------5-|--3---3-5---|


G|----------------------------------|
D|----------------------------------|
A|---3----3-----------3-6-5-3-3-5-3-|
E|-5--5-3---5-5-5-3-5---------------|


G|----------|
D|----------|
A|3-------3-|
E|--5-3-5---|


G|--------------------|------------|
D|--------------------|------------|
A|------5-6-5-3-5-3---|----3-------|
E|------------------5-|--3---3-5-3-|


G|----------------------------------|
D|----------------------------------|
A|---3----3-----------3-6-5-3-3-5-3-|
E|-5--5-3---5-5-5-3-5---------------|


Me vuelvo mono (ahh-ah!, ahh-ah!)
G|--------|
D|--------|
A|------3-|
E|5-3-5---|


G|--------------------|------------|
D|--------------------|------------|
A|------5-6-5-3-5-3---|----3-------|
E|------------------5-|--3---3-5-3-|


G|--------------------------------------------|
D|--------------------------------------------|
A|---3----3------------------------------3---3|
E|-5--5-3---5-5-5-3-5---5-3-5---5-3-5---5--5--|


G|---------------------------------|
D|---------------------------------|
A|------------------------5-3--5-3-|
E|-5-3-5---5-3-5---5-3-5-----------|


G|------------------------------|
D|------------------------------|
A|-------------------------3--3-|
E|-5-3-5---5-3-5---5-3-5--5--5--|


G|---------------------------------|
D|---------------------------------|
A|------------------------5-3--5-3-|
E|-5-3-5---5-3-5---5-3-5-----------|


coda final:
*************

Simio!
G|--------------------------------------------------|
D|------------------------------3-5-3---------------| x(4)
A|-3h5-3----3h5-3---3h5-3--6666-------6-5-3-5-6-5-3-|
E|-------5--------5---------------------------------|


... uh!... ah!...

G|-------------------------|
D|-------------------------|X(3)
A|-3h5-3----3h5-3---3h5-3--|
E|-------5--------5--------|


...simios!!!
G|----------------------------|
D|------3-5-3-----------------|
A|-6666-------6-5-3-5-6-5-3---|
E|--------------------------5-|

            
            
Suggest correction
Creating personal tab
Creating personal tab
You can edit any tab online and save it as your Personal.

You can edit, replace or remove any tab part or add personal notes – all changes will be seen only by you.

Personal tabs can be accessed anytime from any device, even offline.
Learn more »
Give kudos to tab author, rate the tab!
1 2 3 4 5
comments
print report bad tab
guest
Wanna post a correction for this tab? Suggest correction