Oops, an error
Loading. Please wait.

Multiricachon bass

192 views 1 this week
1 commentread comment
1 2 3 4 5
2 more votes to show rating
add to favorites
×
Save as Personal and add changes to this tab that will be seen only by you. Learn more ›
×
You can save this tab as Personal to edit and correct it or add notes. All changes will be seen only by you. Learn more »
launch autoscroll
font size
0
reset
guitar tuner
edit
Autoscroll
slow
fast
+/-
esc
set tempo
stop
Esta es la primera vez que transcribo una tab, asi que disculpen
los errores que pueda cometer.
Es un muy buen tema de chancho, no es dificil, cuenta con unos
cuantos riff q se repiten, eso si deben fijarse bien en los tiempos.

Intro:
----------------
----------------
----------------
--5-0-5---------

Verso 1:
-------------------------------
-------------------------------
12----10----12----12-10--------   x4
---12----10----12-------10-----

Coro 1:
---------------------------------------------
---------------------------------------------
------------33333---3-55555---5-3333-3-2-3-2-   x2
--5555-0-5--------3---------5----------------

Verso 2:
-------------------------------
-------------------------------
12----10----12----12-10--------   x4
---12----10----12-------10-----

Coro 2:
---------------------------------------------
---------------------------------------------
------------33333---3-55555---5-3333-3-2-3-2-   x3
--5555-0-5--------3---------5----------------

---------------------------------------------
---------------------------------------------
------------33333---3-55555---5-7-77---------
--5555-0-5--------3---------5----------------

interlude
------------------------------------
------------------------------------
-------7-----2----5-----------------  x3
---5-8---0-3---5-8------------------

----------------------------------
----------------------------------
-------7-----2--------------------
---5-8---0-3---5------------------

-------------------------------
-------------------------------
12----10----12----12-10--------   x4
---12----10----12-------10-----

Coro Final:                                            _
---------------------------------------------           |
---------------------------------------------           |
------------33333---3-55555---5-3333-3-2-3-2-   x3      |
--5555-0-5--------3---------5----------------           |
                                                        | x2
                                                        |
--------------------------------------------            |
--------------------------------------------            |
----------3-3-3----5-5----------------------            |
--5-5-5----------------0--------------------           _|


------------------------------------
------------------------------------
-------7-----2----5-----------------  x3
---5-8---0-3---5-8------------------

----------------------------------
----------------------------------
-------7-----2--------------------
---5-8---0-3----5~~~~-------------

Eso es todo, nada de complejo, cualquier error,
les dejo mi correo nachopla@
Un saludos a todos los hermanos marranos y que
viva Chile y los chancho en piedra mierda!!!
Suggest correction
Creating personal tab
Creating personal tab
You can edit any tab online and save it as your Personal.

You can edit, replace or remove any tab part or add personal notes – all changes will be seen only by you.

Personal tabs can be accessed anytime from any device, even offline.
Learn more »
Give kudos to tab author, rate the tab!
1 2 3 4 5
comments
print report bad tab
1 comment total.
0 reply
DonRoyaltie 10 Sep 07, 2015 08:22 AM

buena viejo ,se agradece!

guest
Wanna post a correction for this tab? Suggest correction