Oops, an error
Loading. Please wait.

No Ha Sido Facil tab

23 views 1 this week
no commentswrite comment
1 2 3 4 5
3 more votes to show rating
add to favorites
×
Save as Personal and add changes to this tab that will be seen only by you. Learn more ›
×
You can save this tab as Personal to edit and correct it or add notes. All changes will be seen only by you. Learn more »
launch autoscroll
font size
0
reset
how to read this tab
guitar tuner
edit
Autoscroll
slow
fast
+/-
esc
set tempo
stop



INTRO + ESTROFAS
   C           D
|--0---0--0-0--2--2-2-2--|
|--1---1--1-1--3--3-3-3--|
|--0---0--0-0--2--2-2-2--|
|--2-----------0---------|
|--3---------------------|
|------------------------|
... básicamente hace variaciones sobre estos dos acordes de esta manera
resaltando las notas agudas del acorde.

C-D-C-D
(entra el bajo)
C-D-C-D

C     D
U-u-u Uuuuuu
C     D
U-u-u Uuuuuu
C     D
U-u-u Uuuuuu
C     D
U-u-uuuuuuuu

C            D       C              D
No ha sido fácil aceptar la realidad
C                    D
me tengo que marchar
C                   D
no te puedo olvidar
C            D        C                 D
pretendo realizar un trip hacia alta mar
C                 D
vivir mi vida allá
C                   D
para interpretar... solamente

C     D
U-u-u Uuuuuu
C     D
U-u-u Uuuuuu
C     D
U-u-u Uuuuuu
C     D
U-u-uuuuuuuu

C            D        C        D
Y la distancia no me pudo ayudar
C               D           C          D
las fuerzas del inicio se agotan al final
C                D
y quiero entender
    C               D
me cuesta comprender
C           D       C                  D
que debo aceptar en vez de tratar de olvidar

C     D
U-u-u Uuuuuu
C     D
U-u-u Uuuuuu
C     D
U-u-u Uuuuuu
C     D
U-u-u Uuuuu-u-u U-u-u



***********************************************************
CORO

   G         C  G               C  G
|--3------------3-3---3---------3--3--3-3-3--|
|--3---------5--3---3-----------5--3--3-3-3--|
|--4---------5--4---------------5--4--4-4-4--|
|--5---------5--5---------------5--5---------|
|--5--2------------------2-----(3)(5)--------|
|--3----5-3----------------5-3---------------|

        A                          D
|-------5--5-5-5-5-----------------2--2-2-2--|
|-------5--5-5-5-5-----------------3--3-3-3--|
|-------6--6-6-6-6-----------------2--2-2-2--|
|-------7--------------------------0--0-0-0--|
|--2-5--7-----------2h3-2-0-2----------------|
|-----------------------------2-0------------|
***********************************************************



   F     G     D     C
|--1--|--3--|--2--|--0--|
|--1--|--3--|--3--|--1--|
|--2--|--4--|--2--|--0--|
|--3--|--5--|--0--|--2--|
|-----|-----|-----|-(3)-|
|-----|-----|-----|-----|


F        G             D
Algunos tratan de entender (algunos tratan de entender)
F        G
y no descubren nada

C     D
U-u-u Uuuuuu
C     D
U-u-u Uuuuuu
C     D
U-u-u Uuuuuu
C     D
U-u-u Uuuuuu

C                 D
Que acepte el destino
C                     D
todo cambio es para mejor
C                     D
otros creen que lo quiso Dios
C                      D
no hay excusas para el dolor

   C                   D
y quiero ver o poder saber
C                            D
que donde tú estés te encuentres bien
C                 D
cierro mis ojos y pienso en ti
C                          D
para que algín día vuelvas junto a mi

C     D
U-u-u Uuuuuu
C     D
U-u-u Uuuuuu
C     D
U-u-u Uuuuuu
C     D
U-u-u Uuuuu-u-u U-u-u



***********************************************************
CORO (igual que el anterior)
***********************************************************



   F     G     D     C
|--1--|--3--|--2--|--0--|
|--1--|--3--|--3--|--1--|
|--2--|--4--|--2--|--0--|
|--3--|--5--|--0--|--2--|
|-----|-----|-----|-(3)-|
|-----|-----|-----|-----|


F        G             D
Algunos tratan de entender (algunos tratan de entender)
F        G          C            D
y no descubren nada en que creer
F       G            D
Algunos mueren por amor
F        G
los derrotó el dolor

C     D
U-u-u Uuuuuu
C     D
U-u-u Uuuuuu
C     D
U-u-u Uuuuuu
C     D
U-u-u Uuuuuu

C                D    C           D
No trates de entender lo que pasó ayer
C              D
no existe explicación
C         D
Uuuuu-u-u Uuuuu-u-u U-u-u

   G
|--3--|
|--3--|
|--4--|
|--5--|
|-----|
|-----|


visita 
todo el Desde el Batiscafo el 22/12/05!!!

            
            
Suggest correction
Creating personal tab
Creating personal tab
You can edit any tab online and save it as your Personal.

You can edit, replace or remove any tab part or add personal notes – all changes will be seen only by you.

Personal tabs can be accessed anytime from any device, even offline.
Learn more »
Give kudos to tab author, rate the tab!
1 2 3 4 5
comments
print report bad tab
guest
Wanna post a correction for this tab? Suggest correction