Oops, an error
Loading. Please wait.

Pascuero bass

31 views 1 this week
no commentswrite comment
1 2 3 4 5
3 more votes to show rating
add to favorites
×
Save as Personal and add changes to this tab that will be seen only by you. Learn more ›
×
You can save this tab as Personal to edit and correct it or add notes. All changes will be seen only by you. Learn more »
launch autoscroll
font size
0
reset
guitar tuner
edit
Autoscroll
slow
fast
+/-
esc
set tempo
stop
chancho en piedra
PA$CUERO
EL TINTO ELEMENTO(2002)   
yakuza106@
transcripcion de:IGNACIO SIERRA (AFRO)
-14/12/2003

Bueno...esta es la primera transcripcion que hago y está bastante buena...
cualquier duda o alguna peticion de alguna cancion(guitarra o bajo)
mandenmela a mi mail: YAKUZA106@

h:hammer
/:slide up
\:slide down

INTRO:
|-7-6------------------|
|-----9----------------|  
|-------9-7------------|
|-----------10-9-10----|

VERSO 1:(el viejo pa$cuero a quedado cesante...)
|---------------|
|---------------|  X3  
|------4-5------|
|-5-7------7----|

|---------------|
|---------------|  
|-------4-5-4---|
|--5-7----------|

|---------------|
|---------------|  X3  
|------4-5------|
|-5-7------7----|

|---------------------------------------|
|---------------------------------------|  
|---------------------------------------|
|-5-7(esta ultima nota dura mas)--------|

|---------------|
|---------------|  X3  
|------4-5------|
|-5-7------7----|

|---------------|
|---------------|  
|-------4-5-4---|
|--5-7----------|

|---------------|
|---------------|  X3  
|------4-5------|
|-5-7------7----|

|---------------|
|---------------|  
|-------4-5-4---|
|--5-7----------|

PUENTE:
|----------------7-6------|
|---9----------------7----| X2  
|-----9-7-----------------|
|----------10-9-----------|

|---6-7-10-9-7-6-7----|
|-9-------------------|  
|---------------------|
|---------------------|

|---6-7-10-9-7-6------|
|-9--------------7----|  
|---------------------|
|---------------------|
                               _
VERSO 2:(el dia del padre...)   \  
|---------------|                \                                           
|---------------|  X3             \
|------4-5------|                  \
|-5-7------7----|                   \ X4
                                    /
|---------------|                  /          
|---------------|                 /
|-------4-5-4---|                /
|--5-7----------|              _/
                          
PUENTE:
|----------------7-6------|
|---9----------------7----| X2  
|-----9-7-----------------|
|----------10-9-----------|

|---6-7-10-9-7-6-7----|
|-9-------------------|  
|---------------------|
|---------------------|

|---6-7-10-9-7-6------|
|-9--------------7----|  
|---------------------|
|---------------------|

CORO 1:(no olvides de gastar el doble en navidad...)
|--------------------|-----------------------------------|
|--------------------|-------5-7-5-----5-----------------|  
|-2-2/9-9--------0-3-|-5-7-8-------8-7---8-7-5-4-5-4-----|
|---------1-1-1------|-------------------------------5---|
(y nunca olvides de pagar tus cuotas de felicidad...)
|-------------------|-----------------|-----------------|
|-------------------|-------4-2-------|-----------------|  
|-2-2/9-9------0-3--|-5-4-2-----5-4---|-----------------|
|---------1-1-1-----|---------------5-|-3-3-3-3-5-5-14\3|
                              _
VERSO 3:(creo en dios padre..) \  
|---------------|                \                                           
|---------------|  X3             \
|------4-5------|                  \
|-5-7------7----|                   \ X4
                                    /
|---------------|                  /          
|---------------|                 /
|-------4-5-4---|                /
|--5-7----------|              _/

PUENTE:(endeudado me siento mejor, me siento mejoooor!!!!)
|----------------7-6------|
|---9----------------7----| X2  
|-----9-7-----------------|
|----------10-9-----------|

|---6-7-10-9-7-6-7----|
|-9-------------------|  
|---------------------|
|---------------------|

|---6-7-10-9-7-6------|
|-9--------------7----|  
|---------------------|
|---------------------|

CORO 2:(no olvides de gastar el doble en navidad...)
|-------------------|-----------------------------------|
|-------------------|-------5-7-5-----5-----------------|  
|-2-2/9-9-------0-3-|-5-7-8-------8-7---8-7-5-4-5-4-----|
|---------1-1-1-----|-------------------------------5---|
( y nunca olvides de pagar tus cuotas de felicidad...)
|-------------------|-----------------|-----------------------------------|
|-------------------|-------4-2-------|-----------------------------------|  
|-2-2/9-9-------0-3-|-5-4-2-----5-4---|-----------------------------------|
|---------1-1-1-----|---------------5-|-3-3-3-3-3-3-3-3-3-3-3-3-5-5-5-5---|

POST-CORO:
(jajajajajaja,compra en mi local...)(por favor por favor aguinaldo mejor...)
|------------------------------------------|
|------------------------------------------| X2 
|------------------------------------------|
|-7-------3-3-3-3-3-3-3-3-3-3-3-3-5-5-5-5--|
(din don bell,din din bell nieve quiero ver...)
|----11-11-11-11--11/12-------11----------|
|-----------------------12-14-------------|  
|---------------------------------5/17\---|
|-7-------------------------------------3-|

CORO 3:(no olvides de gastar el doble en navidad...)
|-----------------------|-----------------------------------|
|-----------------------|-------5-7-5-----5-----------------|  
|-----2-2/9-9-------0-3-|-5-7-8-------8-7---8-7-5-4-5-4-----|
|15\3---------1-1-1-----|-------------------------------5---|
(¡din don bell din don bell! ¿nieve querias ver?...)
|-------------------|-----------------|-------------------|
|-------------------|-------4-2-------|-------------------|  
|-2-2/9-9-------0-3-|-5-4-2-----5-4---|-------------------|
|---------1-1-1-----|---------------5-|-3-3-3-3-5-5-5-5---|

CORO FINAL:(no olvides de gastar el doble en navidad...)
|------------------|-----------------|-----------------|-------------------|
|-------2-4-2------|-----------0-2-4-|-------5-7-5-----|-5-------5/9-------| 
|-2-4-5-------5-4--|-------1-3-------|-5-7-8-------8-7-|---8-7-5-----8-7-5-|
|------------------|-1-3-4-----------|-----------------|-------------------|
(y nunca olvides de pagar tus cuotas de felicidad...)
|-2h4-----------------|----------------|----------------|
|-----4-2---2---------|-----------0-2-4|-------5-7-5----|  
|---------5---5-4-----|-------1-3------|-5-7-8-------8-7|
|-----------------7\3-|-1-3-4----------|----------------|
(en la cuenta del viejo pa$cuero pon tu dinero!)
|---------------------------------------|
|---------------------------------------|
|---------------------------------------|
|-3-3-3-3-3-3-3-3-3-3-3-3-3/5-5-5-15\5--|

FINAL:
(no deberas jamas olvidar el cumpleaños del viejo pa$cual!)
|---------------|
|---------------|  X3  
|------4-5------|
|-5-7------7----|

|---------------|
|---------------|  
|-------4-5-4---|
|--5-7----------|

¡¡¡¡¡VIVA CHILE MIERDA Y LOS CHANCHO EN PIEDRA!!!!!
Suggest correction
Creating personal tab
Creating personal tab
You can edit any tab online and save it as your Personal.

You can edit, replace or remove any tab part or add personal notes – all changes will be seen only by you.

Personal tabs can be accessed anytime from any device, even offline.
Learn more »
Give kudos to tab author, rate the tab!
1 2 3 4 5
comments
print report bad tab
guest
Wanna post a correction for this tab? Suggest correction