Oops, an error
Loading. Please wait.

Ratones De Cola Pela bass

114 views 1 this week
no commentswrite comment
1 2 3 4 5
3 more votes to show rating
add to favorites
×
Save as Personal and add changes to this tab that will be seen only by you. Learn more ›
×
You can save this tab as Personal to edit and correct it or add notes. All changes will be seen only by you. Learn more »
launch autoscroll
font size
0
reset
guitar tuner
edit
Autoscroll
slow
fast
+/-
esc
set tempo
stop
Coro 1
(Hay ratones.....)
|------------------------------------------------------------|
|------------------------------------------4b-4-2----------2-|
|-4---------1---1-2--1-----------4-------1--------4--2-4-4---|
|----1-1-4----4---------4-4-1--1---1-1-4---------------------|

|----------------------------------------------------------------------------|
|------------------------------------------4b-4-2----------4-2-4-2-----------|
|-4---------1---1-2--1-----------4-------1--------4--2-4-4---------2-2--2-4--|
|----1-1-4----4---------4-4-1--1---1-1-4-------------------------------------|

Verso
(Se?ora si no le he hecho da?o......)
|-------------------------------------------------------4---6---11---9-|
|----------------------------------------------------------------------|
|-4-2-4--4-------1--2---2--2-2-----2-4-2-4--4-------1-2---4---9----7---|
|----------1-1-4------2--------2-2------------1-1-4--------------------|

  (Conmigo no gaste su crueldad...)
|-----------------------------------------------------------------------|
|---------------------------------------------------------2-2---2h4p2---|
|-4-2-4--4-------1--2---2--2-2-----2-4-2-4--4-------1-2-2-----2-------4-|
|----------1-1-4------2--------2-2------------1-1-4---------------------|

(Porque me quiere matar...)
|----------------------------------------------------|
|----------------------------------------4/6-4-2-4---|
|-2--2-3-4-----2-2-2-3-4----2--2-3-4---------------4-|
|------------0------------0------------0-------------|

Coro 2
(Son de Cola Pela'...)
|----------------------------------------------------------------4---|
|-9-8-6-----------------------2-----9-8-6--------------------------6-|
|-------9-8---------------------4----------9-8-----------------------|
|-----------9--8-7-7-4--2-2-4------------------9--8-7-7-4--2-2-4-----|

|--------------------------|
|--------------------------|
|-4--------1---------------|
|----1--4-----7-6-4--7-6-4-|

Coro 1
(Hay ratones......)
|------------------------------------------------------------|
|------------------------------------------4b-4-2----------2-|
|-4---------1---1-2--1-----------4-------1--------4--2-4-4---|
|----1-1-4----4---------4-4-1--1---1-1-4---------------------|

|----------------------------------------------------------------------------|
|------------------------------------------4b-4-2----------4-2-4-2-----------|
|-4---------1---1-2--1-----------4-------1--------4--2-4-4---------2-2--2-4--|
|----1-1-4----4---------4-4-1--1---1-1-4-------------------------------------|


Verso
(Se?ora si no interrumpo.......)
|-------------------------------------------------------4---6---11---9-|
|----------------------------------------------------------------------|
|-4-2-4--4-------1--2---2--2-2-----2-4-2-4--4-------1-2---4---9----7---|
|----------1-1-4------2--------2-2------------1-1-4--------------------|

(Ya le dije que no hago nada....)
|-----------------------------------------------------------------------|
|---------------------------------------------------------2-2---2h4p2---|
|-4-2-4--4-------1--2---2--2-2-----2-4-2-4--4-------1-2-2-----2-------4-|
|----------1-1-4------2--------2-2------------1-1-4---------------------|

(No sea porfia'....)
|----------------------------------------------------|
|----------------------------------------4/6-4-2-4---|
|-2--2-3-4-----2-2-2-3-4----2--2-3-4---------------4-|
|------------0------------0------------0-------------|

Coro 2
(Son de Cola Pela'....)
|----------------------------------------------------------------4---|
|-9-8-6-----------------------2-----9-8-6--------------------------6-|
|-------9-8---------------------4----------9-8-----------------------|
|-----------9--8-7-7-4--2-2-4------------------9--8-7-7-4--2-2-4-----|

|--------------------------|
|--------------------------|
|-4--------1---------------|
|----1--4-----7-6-4--7-6-4-|

Interludio
(Si un momento de antencisn...)
|------------------------------------------------------------------|
|------------------------------------------------------------------|
|------------------------------------------------------------------|
|-7-6-4--7-6-4----7-6-4--7-6-4----7-6-4--7-6-4----7-6-4--7-6-4-3---|

|----------------------------------------------------------------------|
|----------------------------------------------------------------------|
|----------------------------------------------------------------------|
|-7-6-4--7-6-4----7-6-4--7-6-4--1-2-3--7-6-4--7-6-4----7-6-4--7-6-4----|

|--------------------------------------------------------------------------|
|--------------------------------------------------------------------------|
|--------------7-7-7-4-------7-4---4-----------------7-7-7-4-------7-4---4-|
|-7-6-4--7-6-4---------7-6-4-----7------7-6-4--7-6-4---------7-6-4-----7---|

|--------------------------------------------------------------------------|
|------------------------------------------------------------------------2-|
|--------------7-7-7-4-------7-4---4-----------------7-7-7-4---------2h4---|
|-7-6-4--7-6-4---------7-6-4-----7------7-6-4--7-6-4---------1-2-3-4-------|

|--------------------------------------------------------------------------|
|--------------------------------------------------------------------------|
|--------------7-7-7-4-------7-4---4-----------------7-7-7-4-------7-4---4-|
|-7-6-4--7-6-4---------7-6-4-----7------7-6-4--7-6-4---------7-6-4-----7---|

|-----------------------------------------------------------------------------------------|
|------------------------------------------------------------------------7-6-4------------|
|--------------7-7-7-4-------7-4---4-----------------7-7-7-4-------7-6-4---------7-6-0-4--|
|-7-6-4--7-6-4---------7-6-4-----7------7-6-4--7-6-4---------7-6-4------------------------|


este tab es solamente para colaborar con esta pagina.
dedicada a los marranos de corazon.
viva chile mierda!!!...y los chancho en piedra!!!!
Suggest correction
Creating personal tab
Creating personal tab
You can edit any tab online and save it as your Personal.

You can edit, replace or remove any tab part or add personal notes – all changes will be seen only by you.

Personal tabs can be accessed anytime from any device, even offline.
Learn more »
Give kudos to tab author, rate the tab!
1 2 3 4 5
comments
print report bad tab
guest
Wanna post a correction for this tab? Suggest correction